Guitaretab - guitar tabs
Song name
# A B C D E F G H I J K L M N O P Q R S T U V W X Y Z

Behexen - Christ Forever Die tab

Band: Behexen
Song: Christ Forever Die
Tabbed by: DominusSathanas
listen to the song for the timing.

Riff 1
E |-----------------------------------|
B |-----------------------------------|
G |-----------------------------------|
D |--999-888-999-888-999-888-555-444--|
A |--777-777-777-777-777-777-777-777--|
E |-----------------------------------|x4

Riff 2
E |-----------------------------------|
B |-----------------------------------|
G |-----------------------------------|
D |--9---8---11--8---9---8---5---4----|
A |--777-777-777-777-777-777-777-777--|
E |-----------------------------------|x4

Riff 3
E |----------------------------------------------------|
B |----------------------------------------------------|
G |----------------------------------------------------|
D |--44-77-88-77-44-77-88-77-88-44-55555555-2222-0000--|
A |--55-55-55-55-55-55-55-55-55-33-33333333-3333-3333--|
E |----------------------------------------------------|x4
[ Tab from: http://www.guitaretab.com/b/behexen/87263.html ]
Riff 4a
E |-------------------------------------------|
B |-------------------------------------------|
G |-------------------------------------------|
D |-------------------------------------------|
A |--2222-4444-5555-4444-2222-4444-5555-4444--|
E |--0000-2222-3333-2222-0000-2222-3333-2222--|

Riff 4b                                       before riff 5, end with
E |-----------------------------------------------| -----|
B |-----------------------------------------------| -----|
G |-----------------------------------------------| -----|
D |-----------------------------------------------| --2--|
A |--444-555-77-888-777-55-444-555-77-888-777-55--| --2--|
E |--222-333-55-666-555-33-222-333-55-666-555-33--| --0--|


Riff 5
E |-----------------------------------|
B |-----------------------------------|
G |------0-----4-----0-----4----------|
D |----4-----4-----4-----4------------|
A |--2-----2-----2-----2--------------|
E |-----------------------------------|

E |-----------------------------------|
B |-----------------------------------|
G |------0---0---------4---4----------|
D |----4---4-----4---4---4-----4------|
A |--2---------2---2---------2--------|
E |-----------------------------------|
Related for Christ Forever Die tab
×
Christ Forever Die