Song name
# A B C D E F G H I J K L M N O P Q R S T U V W X Y Z

Behind Crimson Eyes - Bullets For Blood tab

Artist:Behind Crimson Eyes
Song:Bullets For Blood
Tabbed By:Kalman

Key:
/ = slide
h = Hammer on
p = Pull off

e|---------------------------------------------------------------------|
 |---------------------------------------------------------------------|
 |---------------------------------------------------------------------|
 |------------------------------------------------------------11----10-|
 |----6---5h6-------8---6---5h6p5----10---11/10---------13-------------|
E|-44---4-----44/66---6---6-------88----8-------88/1111----11----11----|


e|---------------------------------------------------------------------|
 |---------------------------------------------------------------------|
 |---------------------------------------------------------------------|
 |---------------------------------------------------------------------|
 |-----6---5h6-------8---6---5h6p5----10---11/10---------13---------13-|
E|-44---4-----44/6-6---6---6-------88----8-------88/1111----11-1010----|

You'll agree it sounds just like it.
Tap to rate this tab
# A B C D E F G H I J K L M N O P Q R S T U V W X Y Z