Song name
# A B C D E F G H I J K L M N O P Q R S T U V W X Y Z

Behind Crimson Eyes - Black Veil tab

   ----------------------------------------------------------------------
                   BEHIND CRIMSON EYES - THE BLACK VEIL
   ----------------------------------------------------------------------
Tabbed by: Darcy baylis
email: escape_artists_never_die17@hotmail.com

This is B.C.E's best song. it might not be 100% correct but it still sounds good. And 
easy to play so you shouldnt have any trouble. Please send any comments, queries, blah 
blah. Good luck!

.= palm mute
~=let ring
=slide down
/=slide up
h=hammer on
p=pull off

Intro pt 1: highly distorted, played slowly

e------------------------------------------------------------|
b------------------------------------------------------------|
g-0-5-7-8----0-5-7-10----0-5-7-8----0-5-7-10-----------------|
d------------------------------------------------------------|
a------------------------------------------------------------|
c------------------------------------------------------------|

e-------|
b-------|
g-------|
d-0~----|
a-0~----|
c-0~----|

play intro four times fastly

intro pt 2:
e-------------------------------------------------------------|
b-------------------------------------------------------------|
g-------------------------------------------------------------|
d-7-7-7-7-3~--3-3-3-3-5~-5-5-5-5-x4---------------------------|
a-7-7-7-7-3~--3-3-3-3-5~-5-5-5-5-x4---------------------------|
c-7-7-7-7-3~--3-3-3-3-5~-5-5-5-5-x4---------------------------|

After second time play intro twice.

Pre verse:
e-------------------------------------------------------------|
b-------------------------------------------------------------|
g-------------------------------------------------------------|
d-7-7-7-7-x4--------------------------------------------------|
a-7-7-7-7-x4--------------------------------------------------|
c-7-7-7-7-x4--------------------------------------------------|
  . .

Verse: ("day by day were growing stronger..")
e---------------------------------------------------------------|
b---------------------------------------------------------------|
g---------------------------------------------------------------|
d-7-7-7-7-7-7-7-7-7-7-7-3-3-3-3-3-3-3-3-3-3-3-5-5-5-5-7-7-7-7x2-|
a-7-7-7-7-7-7-7-7-7-7-7-3-3-3-3-3-3-3-3-3-3-3-5-5-5-5-7-7-7-7x2-|
c-7-7-7-7-7-7-7-7-7-7-7-3-3-3-3-3-3-3-3-3-3-3-5-5-5-5-7-7-7-7x2-|
  . .   . .   . .   . . . .   . .   . .   . .

Pre chorus: ("she walks away from me...")
e-------------------------------------------------------------|
b-------------------------------------------------------------|
g-------------------------------------------------------------|
d-2-2-2-2-3~---3-3-3-3-3-3-x2---------------------------------|
a-2-2-2-2-3~---3-3-3-3-3-3-x2---------------------------------|
c-2-2-2-2-3~---3-3-3-3-3-3-x2---------------------------------|

Chorus: just the same as intro pt 2
pre verse
verse
pre chorus
chorus

Bridge:
e-------------------------------------------------------------|
b-------------------------------------------------------------|
g-------------------------------------------------------------|
d-3-3-0-5-5-0-7-7---7-7-7-5-5-5-------------------------------|
a-3-3-0-5-5-0-7-7---7-7-7-5-5-5-------------------------------|
c-3-3-0-5-5-0-7-7---7-7-7-5-5-5-------------------------------|

thats all i know, sorry its not much, but its enough to figure out the whole song easily.
LONG LIVE BCE!
Tap to rate this tab
# A B C D E F G H I J K L M N O P Q R S T U V W X Y Z