Song name
# A B C D E F G H I J K L M N O P Q R S T U V W X Y Z

Behind Crimson Eyes - Nightmare On Apparation Part 6 tab

HI! This tab is about 95% correct, i spent a bit more than an hour transcribing it so i 
its good! But heres the tab:

  -----------------------------------------------------------------------
        BEHIND CRIMSON EYES - NIGHTMARE ON APPARATION PART 6
  -----------------------------------------------------------------------

Intro: Guitar 1 ("Welcome to my nightmare...")
d----------------------------------------------------------------------|
a----------------------------------------------------------------------|
f----------------------------------------------------------------------|
b-------7-6-9-7-6h7h6-----------7-6-----------7-6----------------------|
g----------------------------------7-------------7---------------------|
a#-4-4------------------0-0-0----------2-2-2---------------------------|

Guitar 2:
d----------------------------------------------------------------------|
a----------------------------------------------------------------------|
f----------------------------------------------------------------------|
b-4-4-4---0-0-0---2-2-2--2-2-2-----------------------------------------|
g-4-4-4---0-0-0---2-2-2--2-2-2-----------------------------------------|
a#4-4-4---0-0-0---2-2-2--2-2-2-----------------------------------------|

Pre-chorus: Guitar 1 ("Just strap this ball and chain...")
d--4-4--6-6-7-7-8h9h8-4-0-0-5-7-----------------------------------------|
a-------------------------------7---------------------------------------|
f-----------------------------------------------------------------------|
b-----------------------------------------------------------------------|
g-----------------------------------------------------------------------|
a#----------------------------------------------------------------------|

Pre-chorus Guitar 2 is the same as the intro.

Chorus: Guitar 1 ("And if i dream tonight...")
d-7-----------|
a---6-4--x17--|
f-------------|
b-------------|
g-------------|
a#------------|

Chorus: Guitar 2:
d----------------------------------|
a----------------------------------|
f-12--x12--8--x16--6--x12--4--x12--|
b-9--------6-------4-------2-------|
g-9--------6-------4-------2-------|
a#9--------6-------4-------2-------|

Bit before verse: (Guitar 1 only)
d-7-6-----------------|
a-----7-4-5-7---------|
f---------------------|
b---------------------|
g---------------------|
a#--------------------|

Verse 2: ("Its just a dream...")
Guitar 2 is the same as verse 1 but guitar 1 does this:
d-7-6---------|
a------7-x22--|
f-------------|
b-------------|
g-------------|
a#------------|

Bridge: Guitar 1
d------------------------------------------------------------------------|
a--------------------------------18-18-20-18-----------------------------|
f-12b--10-9-14-14-15-14-14-14-15-------------14-14-14-14h15-12-10-10-8-8-|
b------------------------------------------------------------------------|
g------------------------------------------------------------------------|
a#-----------------------------------------------------------------------|

Bridge: Guitar 2:
d-----------------------------------|
a-----------------------------------|
f-6-x9-8-x3-10-x7-8-x3--------------|
b-4----6----8-----6-----------------|
g-4----6----8-----6-----------------|
a#4----6----8-----6-----------------|

Bridge Pt 2. After little drum synth thing:
Guitar 1 plays intro and Guitar 2 plays this:
d-----------------------------------------|
a-----------------------------------------|
f-----------------------------------------|
b-4-4-(Guitar 1 plays intro here)---------|
g-4-4-------------------------------------|
a#4-4-------------------------------------|

"Welcome to my nightmare":

d-----------------|
a-----------------|
f-----------------|
b-4-x8-0-x5-2-x5--|
g-4----0----2-----|
a#4----0----2-----|

And finally both guitars play this:

d------------------------------------|
a------------------------------------|
f------------------------------------|
b-4-4---4--4-4-4-4---4-4-------------|
g-4-4---4--4-4-4-4---4-4-------------|
a#4-4---4--4-4-4-4---4-4-------------|

And there you have it!
GOOD LUCK!












Symbol guide:

| /  slide up
|   slide down
| h  hammer-on
| p  pull-off
| ~  vibrato
| +  harmonic
| .  mute note
| x  scratch
Tap to rate this tab
# A B C D E F G H I J K L M N O P Q R S T U V W X Y Z