Song name
# A B C D E F G H I J K L M N O P Q R S T U V W X Y Z

Behind Crimson Eyes - Game Of Life tab

Song: Game of Life
Artist: Behind Crimson Eyes
Album: Pavour Nocturnus (EP 2005)
Tuning: Drop D (DADGBe)
Tabbed by: the mcr freak

KEY:
~ let ring
* palm mute
/ slide to
p pull off
h hammer-on
t right hand hammer-on

I've been meaning to put this up for almost a year O_o
Work out timing where needed.

GUITAR 1: RHYTHM (KEVIN ORR)
Intro (play twice)
e-------------------------------------|
B-------------------------------------|
G-------------------------------------|
D-------------------------------------|
A-0~-0~---8888-8888-10101010-10101010-|
D-0~-0~---8888-8888-10101010-10101010-|
           **   **    * *      * *

Verse (x3)
e---------------| 
B---------------|  
G---------------|  
D---------------|  
A-8-------00-00-|  
D-8(x16)--00-00-|

Pre-Chorus
e--------------| 
B--------------|  
G--------------|
D--------------|
A-8-----10-----|
D-8(x8)-10(x5)-|

Chorus (x4)
e---------------------|----| 
B---------------------|----|  
G---------------------|----|  
D---------------------|----|  
A-0------8-----10-----|-00-|  
D-0(x16)-8(x6)-10(x6)-|-00-|  

Post chorus
e-----|
B-----| 
G-----|
D-----|
A-----|
D-----|

Repeat verse
Repeat pre-chorus
Repeat chorus

Bridge
e-----------------------------------------------------------------|
B-----------------------------------------------------------------|
G-------------7p5p0-------7p5p0------------7p5p0------7p5p0-------|
D-------------------7p5p0-------7p5p0-----------7p5p0-------7p5p0-|
A-8~---000-00-------------------------000-00----------------------|
D-8~---000-00-------------------------000-00----------------------|
       *** **                         *** **
e----------------------------------------------------------------------------------------|
B----------------------------------------------------------------------------------------|
G-------------7p5p0-------7p5p0------------7p5p0------7p5p0-------7p5p0-------7p5p0------|
D-------------------7p5p0-------7p5p0-----------7p5p0-------7p5p0-------7p5p0-------7p5p0|
A-8~-10~-000-00-------------------------000-00-------------------------------------------|
D-8~-10~-000-00-------------------------000-00-------------------------------------------|
         *** **                         *** **

Repeat pre chorus
Repeat chorus

Outro
e----------------------------|
B----------------------------|
G-7p5p0-------7p5p0----------|
D-------7p5p0-------7p5p0----|
A-------------------------0~-|
D-------------------------0~-|

============================================================

GUITAR 2: LEAD (AARON SHULTZ)
Intro
e----------------------------------|
B----------------------------------|
G----------------------------------|
D-5-0h3h5/8-0h7h8/10-0-8-0-7h8p7/3-|
A----------------------------------|
D----------------------------------|

e-----------------------------|
B-----------------------------|
G-----------------------------|
D-3-2h3--3-2h3--2-3-2-5-3-2h3-|
A-----------------------------|
D-----------------------------|
| |
Either overdubbed or guitar 1 plays this:
e-----------------------------|
B-----------------------------|
G-2-0h2--2-0h2--2-0-2-3-2-0h2-|
D-----------------------------|
A-----------------------------|
D-----------------------------|

Verse
e-17--17--17---------|
B---18--18--18-17h18-|
G--------------------|
D--------------------|
A--------------------|
D--------------------|

Pre chorus
e-----------------------|
B-----------------------|
G---------------77-77-7-|
D-3------5------xx-xx-x-|
A-1(x16)-3(x16)-55-55-5-|
D-----------------------|

Chorus
e--------------------|----------------------------------|
B--------------------|----------------------------------|
G--------------------|----------------------------------|
D-77777777-3333-5555-|-5-0h3h5/8-0h7h8/10-0-8-0-7h8p7/3-|
A-55555555-1111-3333-|----------------------------------|
D--------------------|----------------------------------|

Post chorus
e---------|
B-t15p6p3-|
G---------|
D---------|
A---------|
D---------|

Repeat verse
Repeat pre chorus
Repeat chorus

Bridge
e---------------------------------------------------------------|
B---------------------------------------------------------------|
G---------------------------------------------------------------|
D-3~--------5p3p0------5p3p0-------------5p3p0------5p3p0-------|
A-1~-000-00-------5p3p0------5p3p0-000-00------5p3p0------5p3p0-|
D----000-00------------------------000-00-----------------------|
     *** **                        *** **
e------------------------------------------------------------------|
B------------------------------------------------------------------|
G------------------------------------------------------------------|
D-3~-5~--------5p3p0------5p3p0-------------5p3p0------5p3p0-------|
A-1~-3~-000-00-------5p3p0------5p3p0-000-00------5p3p0------5p3p0-|
D-------000-00------------------------000-00-----------------------|
        *** **                        *** **

Repeat pre chorus
Repeat chorus

Outro
e------------------------------|
B------------------------------|
G------------------------------|
D-5p3p0------5p3p0-------------|
A-------5p3p0------5p3p0--0~---|
D-------------------------0~---|
Tap to rate this tab
# A B C D E F G H I J K L M N O P Q R S T U V W X Y Z