Song name
# A B C D E F G H I J K L M N O P Q R S T U V W X Y Z

Behind Crimson Eyes - Battle Of Liege tab

Band: Behind crimson eyes
Song: The battle of liege
Album: Pavour Nocturnus (2005 EP)

Email: escape_artists_never_die17@hotmail.com


Hey! This is my 4th B.C.E song that ive tabbed and this one is one of the most correct. 
drop tuning like the rest. Good luck!
Intro: (Murder weapon...") Guitar 1 (comes in 9 seconds into the song)

d---------------------|
a---------------------|
f---------6-----------| (X2)
c-4-x16---x--7-x15--2-|
g-4-------4--7------2-|
a-4----------7------2-|

Guitar 2:
d---------11-----|
a-9-8-9-8----X8--|
f----------------|
c----------------|
g----------------|
a----------------|

Verse: Guitar 1 ("Theres no point arguing...")
d------------------------------------------------------------------------|
a------------------------------------------------------------------------|
f------------------------------------------------------------------------|
c-6-6-6-5-5-5-------------------------6-6-6-5-5-5-8-8-8-5-5-5-5-5-5-5-x2-|
g-------------4-4-4-6-6-6-6-6-6-6-x2-------------------------------------|
a------------------------------------------------------------------------|

Verse: Guitar 2 is silent for most of the verse until Josh sings: "This time i'll leave 
fo dead" and it plays this:
d----------|
a-9p8h9-x8-|
f----------|
c----------|
g----------|
a----------|
Play chorus
(The chorus is same as the intro).
play verse.
chorus/intro.
Then this bridge thingy (x2):
Guitar 1:
d-----------------------------|
a-----------------------------|
f-----------------------------|
c-3-x10-5-x10-6-x10-5-x8-11-5-|
g-3-----5-----6-----5----11-5-|
a-3-----5-----6-----5----11-5-|

Bridge Guitar 2 (x2):
d-1-x10-3-x10-4-x10-3-x8-9-3--|
a-----------------------------|
f-----------------------------|
c-----------------------------|
g-----------------------------|
a-----------------------------|

Bridge pt 2 Guitar 1 and 2: x4 (Murder weapon!")
d-----------------|
a-----------------|
f-----------------|
c-4-x16-0-x16-2---|
g-4-----0-----2---|
a-4-----0-----2---|

Outro Guitar 2. Heaps of times:
d-11----------|
a----11/13-9--|
f-------------|
c-------------|
g-------------|
a-------------|

Outro Guitar 1:
d-4-4-6-6-11-11-11-11-|
a---------------------|
f---------------------|
c---------------------|
g---------------------|
a---------------------|
Tap to rate this tab
# A B C D E F G H I J K L M N O P Q R S T U V W X Y Z