Guitaretab - guitar tabs
Song name
# A B C D E F G H I J K L M N O P Q R S T U V W X Y Z

Behind Crimson Eyes - Art Of War tab

Song: Art Of War
Album: Prologue: The Art of War/Cherry Blossom Epitaph
Artist: Behind Crimson Eyes
Tuning: Drop D
Tabbed by: Ongeboren
Email: motchell_heebee@yahoo.com.au

This is my first tab and Iím glad it was this song! The verse was hard to tab so there 
be wrong bits in the first part of it. If thereís any problems, feel free to email me 
any changes that should be made. Please comment and rate.

Edit: Noticed mistakes in intro/chorus and in the second half of the verse (24-11-2007)

Edit: NOticed mistakes in the first half and second half of the verse (6-12-2007)


Order:
Intro x4
Intro (con.) Part 1 x2
Intro (con.) Part 2
Intro (con.) Part 1 x2
Intro (con.) Part 2
Verse
Chorus Part 1 x2
Chorus Part 2
Chorus Part 1 x2
Chorus Part 2
Bridge Part 1
Bridge Part 2 x4
First bridge end
Bridge Part 2 x4
Second bridge end
Chorus Part 1 x2
Chorus Part 2
Chorus Part 1 x2
Chorus Part 2
Chorus Part 1 x6
Outro Part 1
Outro Part 2 x2


Intro
Guitar 1
e|----------|
B|----------|
G|-22225533-|
D|----------|
A|----------|
D|----------|


Intro (con.) Part 1
Guitar 1
e|----------------------------------------|
B|----------------------------------------|
G|--------10------------10------10---10---|
D|-0------x-(x3)-0------x-(x3)--x--0-x--0-|
A|-0-(x3)-8------0-(x3)-8-------8--0-8--0-|
D|-0-------------0-----------------0----0-|
Guitar 2
e|----------------------------------------|
B|----------------------------------------|
G|----------------------------------------|
D|-0-------------0-----------------0----0-|
A|-0-(x3)--------0-(x3)------------0----0-|
D|-0-------------0-----------------0----0-|

Intro (con.) Part 2
Guitar 1
e|-------------------|
B|-------------------|
G|-------------------|
D|-----77-------77---|
A|---88--88---88--88-|
D|-88-------88-------|
Guitar 2
e|-------------------|
B|-------------------|
G|-3-----------------|
D|-3-(x16)-----------|
A|-1-----------------|
D|-------------------|


Verse
Guitar 1
e|---------------------------------------|
B|---------------------------------------|
G|-7~-----------------3~-----------------|
D|-7~-----------------3~-----------------|
A|-5~-----------------1~-----------------|
D|---------------------------------------|
Guitar 2
e|---------------------------------------|
B|---------------------------------------|
G|-222222225533225533-222222225533225533-|
D|---------------------------------------|
A|---------------------------------------|
D|---------------------------------------|

Guitar 1
e|---------------------------------------|
B|---------------------------------------|
G|-5~-----------------5~-----------------|
D|-5~-----------------5~-----------------|
A|-3~-----------------3~-----------------|
D|---------------------------------------|
Guitar 2
e|---------------------------------------|
B|---------------------------------------|
G|-222222225533225533-222222225533225533-|
D|---------------------------------------|
A|---------------------------------------|
D|---------------------------------------|

Then...
Guitar 1
e|-----------------------------------------|
B|-----------------------------------------|
G|-222-222-222-222-222-333-333-333-333-333-|
D|-333-333-333-333-333-333-333-333-333-333-|
A|-----------------------------------------|
D|-----------------------------------------|
    ..  ..  ..  ..      ..  ..  ..  ..
Guitar 2
e|---------------------------------------|
B|---------------------------------------|
G|-222222225533225533-222222225533225533-|
D|---------------------------------------|
A|---------------------------------------|
D|---------------------------------------|
[ Tab from: http://www.guitaretab.com/b/behind-crimson-eyes/72213.html ]
Guitar 1
e|---------------------------------------|
B|---------------------66666666-55555555-|
G|-555-555-555-555-555-55555555-55555555-|
D|-333-333-333-333-333-33333333-33333333-|
A|---------------------------------------|
D|---------------------------------------|
    ..  ..  ..  ..
Guitar 2
e|---------------------------------------|
B|---------------------------------------|
G|-222222225533225533-222222225533225533-|
D|---------------------------------------|
A|---------------------------------------|
D|---------------------------------------|


Chorus Part 1
Guitar 1
e|----------------------------------------|
B|----------------------------------------|
G|--------10------------10------10---10---|
D|-0------x-(x3)-0------x-(x3)--x--0-x--0-|
A|-0-(x3)-8------0-(x3)-8-------8--0-8--0-|
D|-0-------------0-----------------0----0-|
Guitar 2
e|----------------------------------------|
B|----------------------------------------|
G|----------------------------------------|
D|-0-------------0-----------------0----0-|
A|-0-(x3)--------0-(x3)------------0----0-|
D|-0-------------0-----------------0----0-|

Chorus Part 2
Guitar 1
e|-------------------|
B|-------------------|
G|-------------------|
D|-----77-------77---|
A|---88--88---88--88-|
D|-88-------88-------|
Guitar 2
e|-------------------|
B|-------------------|
G|-3-----------------|
D|-3-(x16)-----------|
A|-1-----------------|
D|-------------------|


Bridge Part 1
Guitar 1
e|---------------------------------|
B|---------------------------------|
G|-7-------5-------3-------5-------|
D|-x-(x16)-x-(x16)-x-(x16)-x-(x16)-|
A|-5-------3-------1-------3-------|
D|---------------------------------|
Guitar 2
e|---------------------------------|
B|---------------------------------|
G|-7-------5-------3-------5-------|
D|-7-(x16)-5-(x16)-3-(x16)-5-(x16)-|
A|-5-------3-------1-------3-------|
D|---------------------------------|

Guitar 1
e|-------------------------------------------|
B|-------------------------------------------|
G|-7------9------10-----5------12-----10-----|
D|-x-(x8)-x-(x4)-x-(x4)-x-(x8)-x-(x4)-x-(x4)-|
A|-5------7------8------3------10-----8------|
D|-------------------------------------------|
Guitar 2
e|-------------------------------------------|
B|-------------------------------------------|
G|-7--------------------5--------------------|
D|-7-(x16)--------------5-(x16)--------------|
A|-5--------------------3--------------------|
D|-------------------------------------------|

Guitar 1
e|------------------------------------|
B|------------------------------------|
G|-3------9------10-----5------6------|
D|-x-(x8)-x-(x4)-x-(x4)-x-(x8)-x-(x8)-|
A|-1------7------8------3------4------|
D|------------------------------------|
Guitar 2
e|------------------------------------|
B|------------------------------------|
G|-3--------------------5------6------|
D|-3-(x16)--------------5-(x8)-6-(x8)-|
A|-1--------------------3------4------|
D|------------------------------------|

Bridge (con.) Part 2
Guitar 1
e|--------------|
B|--------------|
G|-9/10-5/7-5/7-|
D|-x/x--x/x-x/x-|
A|-7/8ó-3/5-3/5-|
D|--------------|
Guitar 2
e|--------------|
B|--------------|
G|--------------|
D|--------------|
A|-7h8ó-3h5-3h5-|
D|--------------|

First bridge end
Guitar 1
e|------------------|
B|------------------|
G|------------------|
D|-0-000-000-00-0-0-|
A|-0-000-000-00-0-0-|
D|-0-000-000-00-0-0-|
   . ... ... .. . .
Guitar 2
e|------------------|
B|------------------|
G|------------------|
D|-0-000-000-00-0-0-|
A|-0-000-000-00-0-0-|
D|-0-000-000-00-0-0-|
   . ... ... .. . .

Second bridge end
Guitar 1
e|------------------|
B|------------------|
G|------------------|
D|-0~---------------|
A|-0~---------------|
D|-0~---------------|
   .
Guitar 2
e|------------------|
B|------------------|
G|------------------|
D|-0~---------------|
A|-0~---------------|
D|-0~---------------|
   .

Outro Part 1
Guitar 1
e|--------------------|
B|--------------------|
G|--------------------|
D|-0-000-000-00-0-0-0-|
A|-0-000-000-00-0-0-0-|
D|-0-000-000-00-0-0-0-|
   . ... ... .. . .
Guitar 2
e|--------------------|
B|--------------------|
G|--------------------|
D|-0-000-000-00-0-0-0-|
A|-0-000-000-00-0-0-0-|
D|-0-000-000-00-0-0-0-|
   . ... ... .. . .

Outro Part 2
Guitar 1
e|----------|
B|----------|
G|-22225533-|
D|----------|
A|----------|
D|----------|


| /  slide up
| \  slide down
| h  hammer-on
| p  pull-off
| ~  let ring
| +  harmonic
| x  Mute note
| .  Palm mute
============================================================================
Related for Art Of War tab