Song name
# A B C D E F G H I J K L M N O P Q R S T U V W X Y Z

Behind Crimson Eyes - Youve Had Your Chance tab

hey guys i only got the album a couple of days ago so i haven't had time to tab it all 
i will work on this song and try finish it for the holidays

Drop D tuning :
                e
                B
                G
                D
                A
                D
Key:
b  =  bend
r  = release
/  = slide up
\  = slide down
H  = hammer on
P  = pull off
*  = mute note


(guitar 1)

|-------------------------------10--8-----------|
|-------------6-8---10----------------10-8------|
|--7b(9)r(7)------7----7------------------------|
|-----------------------------------------------|
|-----------------------------------------------|
|-----------------------------------------------|


(guitar 2)

|-----------------------------------------------|
|--------------------------------6--6-8-5-------|
|-----------------------------------------------|
|-----------------------------------------------|
|-----------------------------------------------|
|-----------------------------------------------|


Tabbed by Adam Collins
Tap to rate this tab
# A B C D E F G H I J K L M N O P Q R S T U V W X Y Z