Song name
# A B C D E F G H I J K L M N O P Q R S T U V W X Y Z

Behind Crimson Eyes - Children Of The Broken Hearted tab

Song: Children of the Broken Hearted
Artist: Behind Crimson Eyes
Album: A Revalation for Despair
Tuning: Drop B (B F# B E G# C#)
Tabbed by: the mcr freak

This is NOT the whole tab, nor is it exact but I 
think it's fairly close so it will do until 
someone else decides to tab it.
...Hopefully this will give you a start.
I only tabbed it for one guitar.
Work out strumming and timing patterns for yourself.
xCheers

KEY:
* palm mute
~ let ring
% pinch harmonic
/ slide
v vibtato
b bend
h hammer on
p pull off

Intro
c#|---------------------------|-----------------------------------------------|
G#|---------------------------|-----------------------------------------------|
E |---------------------------|-----------------------------------------------|
B |---------------------------|-------------------------------------------7%b-|
F#|-5-----------5---------5%b-|-5-------------5-------------5-----------------|
B |---0-2-3-2-0---2-3-2-0-----|---0-2-3-2-0-----0-2-3-2-0-----0-2-3-2-0-------|
    * * * * * * * * * * *
(No pinch harmonic second time 'round)

Bridge I (Not too sure about this part...)
|-------------------------|
|-6----6----6----6--------|
|-7----7----7----7---9/8--|
|-7----7----7----7---9/8--|
|---0~---0~---0~---0~-----|
|---0~---0~---0~---0~-----|

Verse
|----------------------------------------|
|----666-555-------------666-555-8888888-|
|-777-----------------777----------------|
|------------7777777---------------------|
|----------------------------------------|
|----------------------------------------|
  ****** *** *******  ****** *** *******

"No escaping you'll see..."
|---------------|                    |----|
|---------------|                    |-10-|
|--------14-----|<-You can play the  |-xx-|
|--------xx-----|  octaves like that |-7--|
|-0~-0~--12-----|  OR--------------->|----|
|-0~-0~---------|                    |----|

"I'll take off your clothes..."
|---------|-------------------|
|-13------|-------------------|
|---14----|-------------------|
|------12-|-------------------|
|---------|-00-0000-0000-0000-|
|---------|-00-0000-0000-0000-|
            ** **** **** ***
"I will sing you to SLEEP!"
|--------------|-00000-|
|--------------|-55555-|
|--------------|-77777-|
|-7------------|-------|
|-5--0-2-3-2-0-|-------|
|----0-2-3-2-0-|-------|

Outro
|------0~-|
|------5~-|
|------7~-|
|---------|
|-0000----|
|-0000----|

O.o
Don't bother rating - it's shit, I know.
Tap to rate this tab
# A B C D E F G H I J K L M N O P Q R S T U V W X Y Z