Guitaretab - guitar tabs
Song name
# A B C D E F G H I J K L M N O P Q R S T U V W X Y Z

Behind Enemy Lines - Light It Up tab

----------------------------------------------------------------------------
                            Revelation Theory
                              Light It Up
----------------------------------------------------------------------------

Hey was sup, now let start off with saying, I LOVE PLAYING THE GUITAR 1 INTRO!!!!! Why?
it just gets you in tune to what will happen later in the song, oh and note, the solo
perfect so please don't be saying it sucks bull "poop". Ratio of solo to me is 8/10. I 
thatís it, so yeah. Enjoy!

Username: dkm817 (same on X box live)
Email: guitardrums@rockfanmail.com (new email address)

Intro

Guitar 1
D----------------------------------|
A-----3------3-------3------3---3--|
F----------------------------------|
C-0-------------3------2------0----| x4
G---0-------------3~-----2~--------|
C-------3~~------------------------|

Guitar 2
D------------------------------------------------|
A------------------------------------------------|
F------------------------------------------------|
C-----------------5-3-0~~~~~~~~~~-5-3-0-3-5~-3-0-|
G-----------------5-3-0~~~~~~~~~~-5-3-0-3-5~-3-0-|
C-----------------5-3-0~~~~~~~~~~-5-3-0-3-5~-3-0-|

Intro 2

Guitar 1 and 2   i can't tell the background harmonic is so sorry
D------------------------------------------------------------|
A------------------------------------------------------------|
F-------------------------------------------1--------0-------|
C-7-5-0-3-5-0~~-7-5-0-3-5-0~~-7-5-0-3-5-3-3----0-2-3---3-0~--| x2
G-7-5-0-3-5-0~~-7-5-0-3-5-0~~-7-5-0-3-5-3-3----0-2-3---3-0~--|
C-7-5-0-3-5-0~~-7-5-0-3-5-0~~-7-5-0-3-5-3-3----0-2-3---3-0~--|

Verse

Guitar 1
Hey I want a taste  You're a black heart devil..
D-----------------------------------------------------------|
A-----------------------------------------------------------|
F-------------------------------------------1-------0-------|
C-----------------------------------------------------3-0~--| x2
G-----------------------------------------------------3-0~--|
C-7-5-0-3-5-0~~-7-5-0-3-5-0~~-7-5-0-3-5-3-3---0-2-3---3-0~--|

Pre-Chorus

Guitar 1
Every night she seems to change her name does it matter who you really are..
D-----------------------------------------------------------|
A-----------------------------------------------------------|
F-------------------------------------------1-------0-------|
C-----------------------------------------------------------| x2
G-----------------------------------------------------------|
C-7-5-0-3-5-0~~-7-5-0-3-5-0~~-7-5-0-3-5-3-3---0-2-3---3-0~--|

Guitar 2
D----------------------------------------------------------|
A----------------------------------------------------------|
F-------------------------------------------1-------0------|
C-7-5-0-3-5-0~~-7-5-0-3-5-0~~-7-5-0-3-5-3-3---0-2-3---3-0~-|
G-7-5-0-3-5-0~~-7-5-0-3-5-0~~-7-5-0-3-5-3-3---0-2-3---3-0~-|
C-7-5-0-3-5-0~~-7-5-0-3-5-0~~-7-5-0-3-5-3-3---0-2-3---3-0~-|

Chorus

Guitar 1
D----------------------------------|
A-----3------3-------3------3---3--|
F----------------------------------|
C-0-------------3------2------0----| x4
G---0-------------3~-----2~--------|
C-------3~~------------------------|

Guitar 2
I ignite so hold on cuz we're about to light it up..
D------------------------------------------------------------------|
A------------------------------------------------------------------|
F---------------------------------5-5-5-5-5-5-5-5------------------|
C-0-0-0-0-0-0-0-0-3-3-3-3-3-3-3-3-3-3-3-3-3-3-3-3-5-5-5-5-5-5-5-5--| x2
G-0-0-0-0-0-0-0-0-3-3-3-3-3-3-3-3-3-3-3-3-3-3-3-3-5-5-5-5-5-5-5-5--|
C-0-0-0-0-0-0-0-0-3-3-3-3-3-3-3-3-----------------5-5-5-5-5-5-5-5--|

Breakoff

Guitar 1 and 2
About to light it up
D--------------------------------------------------------------------------|
A--------------------------------------------------------------------------|
F-----------------------------------------------------------1-------0------|
C-5-3-0-3-5~-3-0--7-5-0-3-5-0~~-7-5-0-3-5-0~~-7-5-0-3-5-3-3---0-2-3---3-0~-|
G-5-3-0-3-5~-3-0--7-5-0-3-5-0~~-7-5-0-3-5-0~~-7-5-0-3-5-3-3---0-2-3---3-0~-|
C-5-3-0-3-5~-3-0--7-5-0-3-5-0~~-7-5-0-3-5-0~~-7-5-0-3-5-3-3---0-2-3---3-0~-|

Verse

Guitar 1
Hey there's no escape  cuz i'm a hard time sinner with a bullet to waste..
D-----------------------------------------------------------|
A-----------------------------------------------------------|
F-------------------------------------------1-------0-------|
C-----------------------------------------------------3-0~--| x2
G-----------------------------------------------------3-0~--|
C-7-5-0-3-5-0~~-7-5-0-3-5-0~~-7-5-0-3-5-3-3---0-2-3---3-0~--|

Pre-Chorus

Guitar 1
I got the whiskey running through my veins tip me over and corer the valve..
D-----------------------------------------------------------|
A-----------------------------------------------------------|
F-------------------------------------------1-------0-------|
C-----------------------------------------------------------| x2
G-----------------------------------------------------------|
C-7-5-0-3-5-0~~-7-5-0-3-5-0~~-7-5-0-3-5-3-3---0-2-3---3-0~--|
[ Tab from: http://www.guitaretab.com/b/behind-enemy-lines/78799.html ]
Guitar 2
D----------------------------------------------------------|
A----------------------------------------------------------|
F-------------------------------------------1-------0------|
C-7-5-0-3-5-0~~-7-5-0-3-5-0~~-7-5-0-3-5-3-3---0-2-3---3-0~-|
G-7-5-0-3-5-0~~-7-5-0-3-5-0~~-7-5-0-3-5-3-3---0-2-3---3-0~-|
C-7-5-0-3-5-0~~-7-5-0-3-5-0~~-7-5-0-3-5-3-3---0-2-3---3-0~-|

Chorus

Guitar 1
D----------------------------------|
A-----3------3-------3------3---3--|
F----------------------------------|
C-0-------------3------2------0----| x6
G---0-------------3~-----2~--------|
C-------3~~------------------------|

Guitar 2
I ignite so hold on cuz we're about to light it up..
D------------------------------------------------------------------|
A------------------------------------------------------------------|
F---------------------------------5-5-5-5-5-5-5-5------------------|
C-0-0-0-0-0-0-0-0-3-3-3-3-3-3-3-3-3-3-3-3-3-3-3-3-5-5-5-5-5-5-5-5--| x3
G-0-0-0-0-0-0-0-0-3-3-3-3-3-3-3-3-3-3-3-3-3-3-3-3-5-5-5-5-5-5-5-5--|
C-0-0-0-0-0-0-0-0-3-3-3-3-3-3-3-3-----------------5-5-5-5-5-5-5-5--|

Interlude

Guitar 1 and 2
It keeps calling my name..
D------------------------------------------------------------------------|
A------------------------------------------------------------------------|
F------------------------------------------------------------------------|
C----------------------------------------------------7-7-7-7-10-10-10-10-|
G----------------------------------------------------7-7-7-7-10-10-10-10-|
C-5-5-3-5-5-3-5b~~-5-5-3-5-5-3-5b~~-5-5-3-5-5-3-5b~~-7-7-7-7-10-10-10-10-|
pm                                                   . . . .

Guitar Solo ratio up at top of tab

Guitar 1
D----------------------------------------------------------|
A----------------------------------------------------------|
F-------------------------------------------1-------0------|
C-7-5-0-3-5-0~~-7-5-0-3-5-0~~-7-5-0-3-5-3-3---0-2-3---3-0~-|
G-7-5-0-3-5-0~~-7-5-0-3-5-0~~-7-5-0-3-5-3-3---0-2-3---3-0~-|
C-7-5-0-3-5-0~~-7-5-0-3-5-0~~-7-5-0-3-5-3-3---0-2-3---3-0~-|

Guitar 2
D-----------------------------------------------------------------------|
A-----------------------------------------------------------------------|
F-15-13-13-13|-15-13-13-13|-15-13-13-13|-15-13-13-13|-15-13-13-13|-17\9-|
C-----------------------------------------------------------------------|
G-----------------------------------------------------------------------|
C-----------------------------------------------------------------------|

Guitar 2
D-----------------------------------------------16-16------------------------|
A---------------------------18-18-18-16b-15--15-------15~-15-16-17-16-17b-13-|
F-12*b~~-13br-10-13-9-12-12--------------------------------------------------|
C----------------------------------------------------------------------------|
G----------------------------------------------------------------------------|
C----------------------------------------------------------------------------|

Guitar 2
D----------------------------------------------------------------|
A-13-14-15-17-19-20-21-18~~-15-17-18-18-19-18-19-18~~-15h17-15~~-|
F----------------------------------------------------------------|
C----------------------------------------------------------------|
G----------------------------------------------------------------|
C----------------------------------------------------------------|

Bridge

Guitar 1
D----------------------------------|
A-----3------3-------3------3---3--|
F----------------------------------|
C-0-------------3------2------0----| x4
G---0-------------3~-----2~--------|
C-------3~~------------------------|

Guitar 2
 Yo daddy tell you not to play my game..
D------------------------------------------------|
A------------------------------------------------|
F------------------------------------------------|
C-----------------5-3-0~~~~~~~~~~-5-3-0-3-5~-3-0-|
G-----------------5-3-0~~~~~~~~~~-5-3-0-3-5~-3-0-|
C-----------------5-3-0~~~~~~~~~~-5-3-0-3-5~-3-0-|

Chorus

Guitar 1
D----------------------------------|
A-----3------3-------3------3---3--|
F----------------------------------|
C-0-------------3------2------0----| x8
G---0-------------3~-----2~--------|
C-------3~~------------------------|

Guitar 2
I ignite so hold on cuz we're about to light it up..
D------------------------------------------------------------------|
A------------------------------------------------------------------|
F---------------------------------5-5-5-5-5-5-5-5------------------|
C-0-0-0-0-0-0-0-0-3-3-3-3-3-3-3-3-3-3-3-3-3-3-3-3-5-5-5-5-5-5-5-5--| x4
G-0-0-0-0-0-0-0-0-3-3-3-3-3-3-3-3-3-3-3-3-3-3-3-3-5-5-5-5-5-5-5-5--|
C-0-0-0-0-0-0-0-0-3-3-3-3-3-3-3-3-----------------5-5-5-5-5-5-5-5--|

Outro

Guitar 1
D-------------------------------------------|
A-------------------------------------------|
F-------------------------------------------|
C-5~~~~~~~~~~~~-5-3-0-3-5~-3-0~~~~~~~~~~~~~-|
G-5~~~~~~~~~~~~-5-3-0-3-5~-3-0~~~~~~~~~~~~~-|
C-5~~~~~~~~~~~~-5-3-0-3-5~-3-0~~~~~~~~~~~~~-|

Guitar 2
D-----------------------------|
A-17brb~~~--------------------|
F----------------7------------|~~-sustain
C----------17\----------------|
G----------17\ps--------------|
C----------17\----------------|

Tab Legend
h  -  hammer-on
p  -  pull-off
\  -  slide down
/  -  slide up
\ps-  pickslide down
/ps-  pickslide up
pm -  palm mute
~  -  let ring
|  -  fast strumming
b  -  bend
r  -  return from bend

THAT'S IT. Thanks for viewing and hopefully this helped. Peace.
Related for Light It Up tab