Song name
# A B C D E F G H I J K L M N O P Q R S T U V W X Y Z

Behind Enemy Lines - Hooked On Christ tab

Artist: Behind Enemy Lines
Song: Hooked on Christ
Album: The Global Cannibal
Tabbed by personman92@gmail.com

C Standard tuning (Low to high:C,F,Bb,Eb,G,C)

As usual, you'll have to figure out the solo yourself.

Intro

Guitars 1 / 2
|----------------------------------------------------------------|
|----------------------------------------------------------------|
|-9--------------------------------------------------------------|
|-9--------------------------------------------------------------|
|-7--------------------------------------------------------------|
|-0--0-0-0-0-0-0-0-0-0-0-0-0-0-0---------------------------------|
     . . . . . . . . . . . . . .


Verse

Guitar 1
|----------------------------------------------------------------|
|----------------------------------------------------------------|
|-9--9-9-9-9-12--9-7-9--15--15151515-14--13-14-13----------------|
|-9--9-9-9-9-12--9-7-9--15--15151515-14--13-14-13----------------|
|-7--7-7-7-7-10--7-5-7--13--13131313-12--11-12-11----------------|
|----------------------------------------------------------------|

Guitar 2
|----------------------------------------------------------------|
|----------------------------------------------------------------|
|-9--------------------------------------------------------------|
|-9--------------------------------------------------------------|
|-7--------------------------------------------------------------|
|-0--0-0-0-0-0-0-0-0-0-0-0-0-0-0---------------------------------|
     . . . . . . . . . . . . . .


Chorus

Guitar 1
|----------------------------------------------------------------|
|----------------------------------------------------------------|
|-9--9-9-9-9-9-9-9-9-9-9-9-9-9-10--------------------------------|
|-9--9-9-9-9-9-9-9-9-9-9-9-9-9-10--------------------------------|
|-7--7-7-7-7-7-7-7-7-7-7-7-7-7-8---------------------------------|
|-0--------------------------------------------------------------|

Guitar 2
|----------------------------------------------------------------|
|----------------------------------------------------------------|
|-9----------------------------10--------------------------------|
|-9----------------------------10--------------------------------|
|-7----------------------------8---------------------------------|
|-0--0-0-0-0-0-0-0-0-0-0-0-0-0-----------------------------------|
     . . . . . . . . . . . . .
Tap to rate this tab
# A B C D E F G H I J K L M N O P Q R S T U V W X Y Z