Song name
# A B C D E F G H I J K L M N O P Q R S T U V W X Y Z

Being As An Ocean - We Will Never Be The Same tab

Drop C Tuning

Intro

Guitar 1
[0:00]-[0:04]
|-----------------------|
|-----------------------|
|--12-12-12-x-12-12-12--|
|--10-10-10-x-10-10-10--|
|--10-10-10-x-10-10-10--|
|--10-10-10-x-10-10-10--|


Verse 1

Guitar 1
[0:04]-[0:29]
|---------------------------------------|
|---------------------------------------|
|--12-12-12---7-7-7---9-9-9---12-12-12--|
|--10-10-10---5-5-5---7-7-7---10-10-10--|
|--10-10-10---5-5-5---7-7-7---10-10-10--|
|--10-10-10---5-5-5---7-7-7---10-10-10--|
|
|x4

Guitar 2
[0:04]-[0:29]
|---------------------------------------------------------------|
|---------------------------------------------------------------|
|-------9----10/12----------------------------------12----------|
|----10---10-------10---9h10p9--------10------9-10-----10-9-10--|
|--8---------------------------10--12----10h12------------------|
|---------------------------------------------------------------|
|
|x4

Chorus

Guitar 1 & 2
[0:31]-[1:12]
|-----------------------------------------------|
|-----------------------------------------------|
|--5-5-5~----5-5-5--7-7-7--9--9--9---12-12-12\--|
|--7-7-7~----7-7-7--9-9-9--10-10-10--14-14-14\--|
|--3-3-3~----3-3-3--5-5-5--7--7--7---10-10-10\--|
|--3-3-3-----3-3-3--5-5-5--7--7--7---10-10-10---|
|
|----------------------------|
|----------------------------|
|--5-5----7-7-----9--9--7-7--|
|--7-7----9-9-----10-10-9-9--|
|--3-3----5-5-----7--7--5-5--|
|--3-3----5-5-----7--7--5-5--|
|
|x4



Verse 2

Guitar 2
[1:12]-[2:15]
|----------------------------------------------------------------------|
|----------------------------------------------------------------------|
|-----------9-------------------9------------------12-----9-----7------|
|-----10------10----10/12-10-12---10---------10------10----10----10----|
|--12----12------12------------------10---12----12-----12----10----10--|
|----------------------------------------------------------------------|


Guitar 1
[1:41]-[1:43]
|------------------|
|------------------|
|---------12-------|
|--9-10-9----10-9--|
|------------------|
|------------------|

Guitar 1
[1:43]-[2:15] These are the chords. 
The strum pattern changes a few times throughout.
|---------------------------------|
|---------------------------------|
|---------------------------------|
|--7-7-7---5-5-5---3-3-3---3-3-5--|
|--7-7-7---5-5-5---3-3-3---3-3-5--|
|--7-7-7---5-5-5---3-3-3---3-3-5--|


Chorus
Guitar 1 & 2
[2:15]-[2:56]
|-----------------------------------------------|
|-----------------------------------------------|
|--5-5-5~----5-5-5--7-7-7--9--9--9---12-12-12\--|
|--7-7-7~----7-7-7--9-9-9--10-10-10--14-14-14\--|
|--3-3-3~----3-3-3--5-5-5--7--7--7---10-10-10\--|
|--3-3-3-----3-3-3--5-5-5--7--7--7---10-10-10---|
|
|---------------------------|
|---------------------------|
|--5-5----7-7----9--9--7-7--|
|--7-7----9-9----10-10-9-9--|
|--3-3----5-5----7--7--5-5--|
|--3-3----5-5----7--7--5-5--|
|
|x4


Verse 3

Guitar 1
[2:56]-[3:21]
|------------------------------------|
|------------------------------------|
|------------------------------------|
|--7-7-7--9-9-9--10-10-10--14-14-14--|
|--3-3-3--5-5-5--7--7--7---10-10-10--|
|--3-3-3--5-5-5--7--7--7---10-10-10--|

Guitar 2
[2:56]-[3:21]
|---------------------------------------------------------------|
|---------------------------------------------------------------|
|-------9----10/12----------------------------------12----------|
|----10---10-------10---9h10p9--------10------9-10-----10-9-10--|
|--8---------------------------10--12----10h12------------------|
|---------------------------------------------------------------|

Guitar 1
[3:21]-[3:30]
|---------|
|---------|
|---12~---|
|---10~---|
|---12~---|
|---------|
Tap to rate this tab
# A B C D E F G H I J K L M N O P Q R S T U V W X Y Z