Song name
# A B C D E F G H I J K L M N O P Q R S T U V W X Y Z

Beirut - Elephant Gun tab

Hey fellows.... I checked the other tabs and they arenīt so bad, but misses something.

CAPO:6th freet

e|--0-0-3-3-0-0-3-0-3-----0-3-3-0-0-3-0-0-2-2-2h0-0-0h2-2-2h0--0-3-3-3-3-3-2-3-3-3-3--|
B|°-0-0-0-0-0-0-0-0-0-0h2-2-2-2-2-2-2-0-0-3-3-3---3-3---3-3----3-3-3-3-3-3-3-3-3-3-3--|
G|--0-0-0-0-0-0-0-0-0-0h2-2-2-2-2-2-2-----2-2-2---2-2---2-2----2-0-0-0-0-0-0-0-0-0-0--|
D|--2-2-2-2-2-2-2-2-2-----------------------------------------------------------------|
A|°-----------------------------------------------------------------------------------|
E|------------------------------------------------------------------------------------|

e|--0-0-3-3-0-0-3-0-3-----0-3-3-0-0-3-0-0-2-2-2h0-0-0h2-2-2h0--0-3-3-3-3-3-2-2-2-2-2-----|
B|--0-0-0-0-0-0-0-0-0-0h2-2-2-2-2-2-2-0-0-3-3-3---3-3---3-3----3-3-3-3-3-3-3-3-3-3-3--°--|
G|--0-0-0-0-0-0-0-0-0-0h2-2-2-2-2-2-2-----2-2-2---2-2---2-2----2-0-0-0-0-0-0-3-3-3-3-----|
D|--2-2-2-2-2-2-2-2-2--------------------------------------------------------------------|
A|---------------------------------------------------------------------------------------|
E|------------------------------------------------------------------------------------°--|


This is the whole song, you just need to listen it well and after you will play it good. 
listen to the song.

Tabbed by: Emma Islas
Tap to rate this tab
# A B C D E F G H I J K L M N O P Q R S T U V W X Y Z