Song name
# A B C D E F G H I J K L M N O P Q R S T U V W X Y Z

Beirut - Postcards From Italy tab

Ukelele main theme:

D
|---0h2--2-2-2-0h2--2-2-2-0h2--2-2-2-3-2-0-2---|
|---3----3-3-3-3----3-3-3-3----3-3-3-3-3-3-3---|
|---2----2-2-2-2----2-2-2-2----2-2-2-2-2-2-2---|
|----------------------------------------------|
|----------------------------------------------|
|----------------------------------------------|

F#
|---0h2--2-2-2-0h2--2-2-2-0h2--2-2-2-3-2-0-2---|
|---2----2-2-2-2----2-2-2-2----2-2-2-2-2-2-2---|
|---3----3-3-3-3----3-3-3-3----3-3-3-3-3-3-3---|
|----------------------------------------------|
|----------------------------------------------|
|----------------------------------------------|

Trumpet:

|---3p2--5p2--3p2-0---3p2--5p2--3p2-0-0h2p0------------2-0---0-------|
|-------------------------------------------3-2~~--2h3-----3---3-2---|
|--------------------------------------------------------------------|
|--------------------------------------------------------------------|
|--------------------------------------------------------------------|
|--------------------------------------------------------------------|x3

|---3p2--5p2--3p2-0---3p2--5p2--3p2-0-0h2p0---------|
|-------------------------------------------3-2~~---|
|---------------------------------------------------|
|---------------------------------------------------|
|---------------------------------------------------|
|---------------------------------------------------|

|---------------------------------------|
|---2h3p2-0-2-3-2-3~~---3-5--3-2--0-----|
|-----------------------------------2---|
|---------------------------------------|
|---------------------------------------|
|---------------------------------------|

Bassline:

|---------------------------------------------|
|---------------------------------------------|
|---------------------------------------------|
|-----0-----0--0--0-2-0-4-----4--4--4-2-4-0---|
|---0-----0-----------------0-----------------|
|---------------------------------------------|

Ukelele Bridge:

|---0h2--2-2-2-2-2-2-2-0h2--2-2-2-2-2-2-2---|
|---3----3-3-3-3-3-3-3-3----3-3-3-3-3-3-3---|
|---2----2-2-2-2-2-2-2-2----2-2-2-2-2-2-2---|
|-------------------------------------------|
|-------------------------------------------|
|-------------------------------------------|

|---5--5-5-5-5-5-5-5-5--5-5-5-5-5-5-5---|
|---3--3-3-3-3-3-3-3-3--3-3-3-3-3-3-3---|
|---2--2-2-2-2-2-2-2-2--2-2-2-2-2-2-2---|
|---------------------------------------|
|---------------------------------------|
|---------------------------------------|

Ukelele riff two:

|---5--5--5---5-5-5-5-0-0-0-0h2--2-2--2--2-2-2-2-0---|
|---3--3--3---3-3-3-3-3-3-3-3----3-3--3--3-3-3-3-3---|
|---4--4--4---4-4-4-4-4-4-4-2----2-2--2--2-2-2-2-2---|
|---5--5--5---5-5-5-5-5-5-5-0----0-0--0--0-0-0-0-0---|
|----------------------------------------------------|
|----------------------------------------------------|

|---2--2--2---2-2-2-2-0-0--5-5--5-5--5-5-5-5-5---|
|---3--3--3---3-3-3-3-3-2--2-2--2-2--2-2-2-2-2---|
|---4--4--4---4-4-4-4-4-2--2-2--2-2--2-2-2-2-2---|
|---4--4--4---4-4-4-4-4-2--2-2--2-2--2-2-2-2-2---|
|------------------------------------------------|
|------------------------------------------------|

Trumpet:

|---------0-2---0h2-5--2-5--2-0---|
|---0-2-3-------------------------|
|---------------------------------|
|---------------------------------|
|---------------------------------|
|---------------------------------|
Tap to rate this tab
# A B C D E F G H I J K L M N O P Q R S T U V W X Y Z