Song name
# A B C D E F G H I J K L M N O P Q R S T U V W X Y Z

Beirut - My Night With The Prostitute From Marseille tab

This is the bit that is played throughout the entire song behind the chords. It wasn't 
out on this site yet, so I thought I'd give it a shot.

|----------------------------------------------------------------------|
|----------3-----------------------------------------------3--0--------|
|-------------2----------------------2------------------2--------------|
|-------2---------2--0---------2--4-----4--2---------4-----------4--0--|
|----5------------------0---5------------------5--2--------------------|
|-3--------------------------------------------------------------------|

|-----------------------|
|-----------------------|
|-----------------------| Repeat from beginning
|----------2--0---------|
|-------2--------4--0---|
|-2--5-----------------2|
Tap to rate this tab
 
# A B C D E F G H I J K L M N O P Q R S T U V W X Y Z