Beirut - Postcards From Italy tab

e-6-5-8-5-6-5-3--6-5-8-5-6-5-3-3-1-0--5-3-1-0-|  ||
b---------------------------------------------| .||
g---------------------------------------------|  ||
d---------------------------------------------|  ||
a---------------------------------------------| .||
E---------------------------------------------|  ||

e-6-5-8-5-6-5-3--6-5-8-5-6-5-3-310------------|  || --------------------------|
b----------------------------------5-3-2-3-5--| .||-6-6-8-6-5-2---------------|
g---------------------------------------------|  ||---------------------------|
d---------------------------------------------|  ||---------------------------|
a---------------------------------------------| .||---------------------------|
E---------------------------------------------|  ||---------------------------|

e--------------8--8-------------------8--8-----|
b-3-5-6-8-10-10-10-10-8--3-5-6-8-10-10-10-10-8-|
g----------------------------------------------|
d----------------------------------------------|
a----------------------------------------------|
E----------------------------------------------|

%vocals%
e--10-10h12-8--8--------8-8-.-10-10h12-8--8----------8-8-|  |
b-8----------10-10-8-6//8---.10----------10-10-8-6//8----| .|
g---------------------------.----------------------------|  |
d---------------------------.----------------------------|  |
a---------------------------.----------------------------| .|
E---------------------------.----------------------------|  |

e--------------8--8-----| ----------8--8------------------|
b-3-5-6-8-10-10-10-10-8-| -6-6-10-10-10-10-8--6-6-10-10-8-|
g---------------------------------------------------------|
d---------------------------------------------------------|
a---------------------------------------------------------|
E---------------------------------------------------------|
Tap to rate this tab
 
# A B C D E F G H I J K L M N O P Q R S T U V W X Y Z