Song name
# A B C D E F G H I J K L M N O P Q R S T U V W X Y Z

Beirut - Port Of Call tab

Standard Tuning

CAPO ON 5TH FRET
Strumming may vary. Listen to the song. It's easy to figure out. 

So this first part compiles all the verses:

|---7-7-7-7-7--7-7-7-7-7---3-3-3-3-3---5-5-5-5-5---0-0-0-0-0--0-0-0-0-0-----| 
|---3-3-3-3-3--3-3-3-3-3---3-3-3-3-3---3-3-3-3-3---2-2-2-2-2--2-2-2-2-2-----| 
|---4-4-4-4-4--4-4-4-4-4---4-4-4-4-4---4-4-4-4-4---2-2-2-2-2--2-2-2-2-2-----| 
|---4-4-4-4-4--4-4-4-4-4---4-4-4-4-4---4-4-4-4-4---2-2-2-2-2--2-2-2-2-2-----|    
|--------------------------------------------------0-0-0-0-0--0-0-0-0-0-----|
|---------------------------------------------------------------------------|

|---2-2-2-2-2--3--2------0-0-0-0-0--0-0-0-0-0--0-0-0-0-0--0--2--2-----------|
|---3-3-3-3-3--3--3--3---2-2-2-2-2--2-2-2-2-2--2-2-2-2-2--2--2--2-----------|
|---2-2-2-2-2--2--2--2---2-2-2-2-2--2-2-2-2-2--2-2-2-2-2--2--2--2-----------|
|---0-0-0-0-0--0--0--0---2-2-2-2-2--2-2-2-2-2--2-2-2-2-2--2--2--2-----------|
|------------------------0-0-0-0-0--0-0-0-0-0--0-0-0-0-0--0--0--0-----------|
|---------------------------------------------------------------------------|

|---0-0-0-0-0--0-0-0-0-0--0-0-0-2-0--5-0-2--0-------------------------------|
|---0-0-0-3-0--0-0-0-0-0--0-0-0-0-0--0-0-0--0-------------------------------|
|---0-0-0-0-0--0-0-0-0-0--0-0-0-0-0--0-0-0--0-------------------------------|
|---2-2-2-2-2--2-2-2-2-2--2-2-2-2-2--2-2-2--2-------------------------------|
|---2-2-2-2-2--2-2-2-2-2--2-2-2-2-2--2-2-2--2-------------------------------|
|---0-0-0-0-0--0-0-0-0-0--0-0-0-0-0--0-0-0--0-------------------------------|

|---0-0-0-0-0--0-0-0-0-0--0-0-0-0-0--0--2--2--------------------------------|
|---2-2-2-2-2--2-2-2-2-2--2-2-2-2-2--2--2--2--------------------------------|
|---2-2-2-2-2--2-2-2-2-2--2-2-2-2-2--2--2--2--------------------------------|
|---2-2-2-2-2--2-2-2-2-2--2-2-2-2-2--2--2--2--------------------------------|
|---0-0-0-0-0--0-0-0-0-0--0-0-0-0-0--0--0--0--------------------------------|
|---------------------------------------------------------------------------|

|---0-0-0-0-0--0-0-0-0-0--0-0-0-0-0--0-0-0-0-0------------------------------|
|---0-0-0-3-0--0-0-0-0-0--3-3-3-3-3--2-2-2-2-2------------------------------|
|---0-0-0-0-0--0-0-0-0-0--0-0-0-0-0--0-0-0-0-0------------------------------|
|---2-2-2-2-2--2-2-2-2-2--2-2-2-2-2--2-2-2-2-2------------------------------|
|---2-2-2-2-2--2-2-2-2-2--2-2-2-2-2--2-2-2-2-2------------------------------|
|---0-0-0-0-0--0-0-0-0-0--0-0-0-0-0--0-0-0-0-0------------------------------|

|---0-0-0-0-0--0-0-0-0-0--0-0-0-0-0--0-0-0-0-0------------------------------|
|---2-2-2-2-2--2-2-2-2-2--2-2-2-2-2--2-2-2-2-2------------------------------|
|---2-2-2-2-2--2-2-2-2-2--2-2-2-2-2--2-2-2-2-2------------------------------|
|---2-2-2-2-2--2-2-2-2-2--2-2-2-2-2--2-2-2-2-2------------------------------|
|---0-0-0-0-0--0-0-0-0-0--0-0-0-0-0--0-0-0-0-0------------------------------|
|---------------------------------------------------------------------------|


The chorus may differ, but essentially, it might sound like this:

|---0-0-0-0-0-0--0-0-0-0-0-0--0-0-0-0-0-0--0-0-0-0-0-0----------------------|
|---0-0-3-3-3-3--0-0-3-3-3-3--0-0-3-3-3-3--0-0-3-3-3-3----------------------|
|---0-0-0-0-0-3--0-0-0-0-0-0--0-0-0-0-0-0--0-0-0-0-0-0----------------------|
|---2-2-2-2-2-2--2-2-2-2-2-2--2-2-2-2-2-2--2-2-2-2-2-2----------------------|
|---2-2-2-2-2-2--2-2-2-2-2-2--2-2-2-2-2-2--2-2-2-2-2-2----------------------|
|---0-0-0-0-0-0--0-0-0-0-0-0--0-0-0-0-0-0--0-0-0-0-0-0----------------------|

|---0-0-0-0-0-0--0-0-0-0-0-0--0-0-0-0-0-0--0-0-0-0-0-0----------------------|
|---2-2-3-3-3-3--2-2-3-3-3-3--2-2-3-3-3-3--2-2-3-3-3-3----------------------|
|---2-2-2-2-2-2--2-2-2-2-2-2--2-2-2-2-2-2--2-2-2-2-2-2----------------------|
|---2-2-2-2-2-2--2-2-2-2-2-2--2-2-2-2-2-2--2-2-2-2-2-2----------------------|
|---0-0-0-0-0-0--0-0-0-0-0-0--0-0-0-0-0-0--0-0-0-0-0-0----------------------|
|---------------------------------------------------------------------------|
Tap to rate this tab
# A B C D E F G H I J K L M N O P Q R S T U V W X Y Z