Song name
# A B C D E F G H I J K L M N O P Q R S T U V W X Y Z

Beirut - Scenic World tab

Help us improve GuitareTab! Take a short survey!
-------------------------------------------------------------------------------
			     Scenic World - Beirut
-------------------------------------------------------------------------------
Tabbed by: tanooj2
Email: ojtano@gmail.com

Tuning: Standard

Ok I realize the song actually has no guitar in it, but you can play all the parts with
the guitar. There are just three main tracks for this song to this song; the main melody
that plays throughout the song, the bass notes under the melody and the bridge which 
comes after each verse.

Main melody

e|-----------------------------------------------------------------------------|
B|------7-------7--------------------------------------------------------------|
G|-7------7-7-------7--9--------9--7h9p7---------------------------------------|
D|--------------------------7--------------9-----------------------------------|
A|-----------------------------------------------------------------------------|
E|-----------------------------------------------------------------------------|


e|------------------------------------7------------------------------------------|
B|--------7-------7-----7-------8--------8---7-----------------------------------|
G|-----------------------------------------------7-------------------------------|
D|-(9)-9-----9-9-----9-----------------------------------------------------------|
A|-------------------------------------------------------------------------------|
E|-------------------------------------------------------------------------------|

repeat that throughout the song


Bass notes

For these you can play the associated chords or power chords, or just the notes.

A|---5------------------0-----------------2------------------------------------|
E|----------------------------------------------------------3------------------|

The chords would be D, A, Bmin and G.


Bridge


e|---------------10-----7--------5--7------9--10---9h10p9p7-----5--------5------------|
B|--------------------------------------------------------------------7---------------|
G|-7----------------------------------------------------------------------------------|
D|------------------------------------------------------------------------------------|
A|------------------------------------------------------------------------------------|
E|------------------------------------------------------------------------------------|

This is played four times after each verse, with the main melody and the bass part
playing underneath it.
Related for Scenic World tab