Song name
# A B C D E F G H I J K L M N O P Q R S T U V W X Y Z

Beirut - Postcards From Italy tab

Help us improve GuitareTab! Take a short survey!
I basically went and converted the trumpet solo to be fit for a guitar part. Tell
me what you think.


e|-6-5--6--5--6--5---3---6--5--6--5--6--5--3--1--0--slide-5--3--1--0----------|
B|----------------------------------------------------------------------------|
G|----------------------------------------------------------------------------|
D|----------------------------------------------------------------------------|
A|----------------------------------------------------------------------------|
E|----------------------------------------------------------------------------|

e|-6-5--6--5--6--5---3---6--5--6--5--6--5--3--1--0---0------------------------|
B|-----------------------------------------------------3--2--3/--5------------|
G|----------------------------------------------------------------------------|
D|----------------------------------------------------------------------------|
A|----------------------------------------------------------------------------|
E|----------------------------------------------------------------------------|

e|-6-5--6--5--6--5---3---6--5--6--5--6--5--3--1--0--slide-5--3--1--0----------|
B|----------------------------------------------------------------------------|
G|----------------------------------------------------------------------------|
D|----------------------------------------------------------------------------|
A|----------------------------------------------------------------------------|
E|----------------------------------------------------------------------------|

e|-6-5--6--5--6--5---3---6--5--6--5--6--5--3--1--0---0------------------------|
B|-----------------------------------------------------3--2--3/--5---6--------|
G|----------------------------------------------------------------------------|
D|----------------------------------------------------------------------------|
A|----------------------------------------------------------------------------|
E|----------------------------------------------------------------------------|

e|----------------------------------------------------------------------------|
B|--6--8--6--5--3--2----------------------------------------------------------|
G|----------------------------------------------------------------------------|
D|----------------------------------------------------------------------------|
A|----------------------------------------------------------------------------|
E|----------------------------------------------------------------------------|
      2:03- Play this twice
e|--------------------------8-------8-----------------------------------------|
B|--3--5---6--8--10---8h10-----8h10----8h10--8--------------------------------|
G|----------------------------------------------------------------------------|
D|----------------------------------------------------------------------------|
A|----------------------------------------------------------------------------|
E|----------------------------------------------------------------------------|
     2:56-3:29
e|-------------------------8--------8-----------------------------------------|
B|--3--5---6--8--10---8h10-----8h10----8h10--8-----8h10--6--5-----------------|
G|----------------------------------------------------------------------------|
D|----------------------------------------------------------------------------|
A|----------------------------------------------------------------------------|
E|----------------------------------------------------------------------------|

3:30
e|----------------------------------------------------------------------------|
B|--6--8/10--10--10--10--10--10--10--10--8--6--5--6---------------------------|
G|----------------------------------------------------------------------------|
D|----------------------------------------------------------------------------|
A|----------------------------------------------------------------------------|
E|----------------------------------------------------------------------------|
Related for Postcards From Italy tab