Song name
# A B C D E F G H I J K L M N O P Q R S T U V W X Y Z

Beirut - Gulag Orkestar tab

Title: The Gulag Orkestar
Artist: Beirut
Album: Gulag Orkestar
Year: 2006
witmachine@yahoo.com


This is the horn part tabbed out for guitar.


Part 1

Dm				 	 A
e----------------10---10--------------|----------------------------------------|
B---------8-10-----10---10---8--------|------------8---10--10p11-10p11--8------|
G--7-9-10----------------------10-9---|--9-7-9--10-----------------------10-9--|
D-------------------------------------|----------------------------------------|
A-------------------------------------|----------------------------------------|
E-------------------------------------|----------------------------------------|


Bb					A
e------------------------------------|----------------------------------------|
B------------------------------------|----------------------------------------|
G----9----7--9--7-----7--9--10--9----|-----9----7---6---------7---------------|
D------------------------------------|----------------------------------------|
A------------------------------------|----------------------------------------|
E------------------------------------|----------------------------------------|


Part 2

Dm					C
e------------------------------------|-----------------------------|
B---------8-10---------8-10-8---9-10-|--8----------8---------------|
G--7-9-10----------------------------|----10-9-------10-9---10-9-7-|
D------------------------------------|-----------------------------|
A------------------------------------|-----------------------------|
E------------------------------------|-----------------------------|

Am			     Bb
e-------------------------|-------------------------------------|
B-------------8-----------|-------------------------------------|
G--9-------10-----9-10-9--|--7-9-7-7-----------7------/14-------|
D-------------------------|-------------------------------------|
A-------------------------|-------------------------------------|
E-------------------------|-------------------------------------|



Part 1 is played twice in the beginning,
Then the rest of the song follows the pattern in Part 2.
Tap to rate this tab
# A B C D E F G H I J K L M N O P Q R S T U V W X Y Z