Song name
# A B C D E F G H I J K L M N O P Q R S T U V W X Y Z

Beirut - Rhineland Heartland tab

Beirut - Rhineland (Heartland)

Tuning: Standard

Tabbed by: Vivian L
   Questions and comments to tofus.for.life@gmail.com


Capo 5


e--3--3-3-3-3---0--0-0-0-0---3--3-3-3-3---0--0-0-0-0--|--0--0-0-0-0---0--0-0-0-0---0--0-0-0-0---0--0-0-0-0--|
B--3--3-3-3-3---3--3-3-3-3---3--3-3-3-3---3--3-3-3-3--|--1--1-1-1-1---1--1-1-1-1---3--3-3-3-3---1--1-1-1-1--|
G--2--2-2-2-2---2--2-2-2-2---2--2-2-2-2---2--2-2-2-2--|--0--0-0-0-0---0--0-0-0-0---0--0-0-0-0---0--0-0-0-0--|
D--0--0-0-0-0---0--0-0-0-0---0--0-0-0-0---0--0-0-0-0--|--2--2-2-2-2---2--2-2-2-2---2--2-2-2-2---2--2-2-2-2--|
A-----------------------------------------------------|--3--3-3-3-3---3--3-3-3-3---3--3-3-3-3---3--3-3-3-3--|
E-----------------------------------------------------|--0--0-0-0-0---0--0-0-0-0---0--0-0-0-0---0--0-0-0-0--|


e--1--1-1-1-1---1--1-1-1-1---1--1-1-1-1---1--1-1-1-1--|--0--0-0-0-0---0--0-0-0-0---0--0-0-0-0---0--0-0-0-0--|
B--1--1-1-1-1---1--1-1-1-1---3--3-3-3-3---1--1-1-1-1--|--1--1-1-1-1---1--1-1-1-1---1--1-1-1-1---1--1-1-1-1--|
G--2--2-2-2-2---2--2-2-2-2---2--2-2-2-2---2--2-2-2-2--|--2--2-2-2-2---2--2-2-2-2---2--2-2-2-2---2--2-2-2-2--|
D--3--3-3-3-3---3--3-3-3-3---3--3-3-3-3---3--3-3-3-3--|--2--2-2-2-2---2--2-2-2-2---2--2-2-2-2---2--2-2-2-2--|
A-----------------------------------------------------|--0--0-0-0-0---0--0-0-0-0---0--0-0-0-0---0--0-0-0-0--|
E-----------------------------------------------------|-----------------------------------------------------|

Repeat
Tap to rate this tab
# A B C D E F G H I J K L M N O P Q R S T U V W X Y Z