Song name
# A B C D E F G H I J K L M N O P Q R S T U V W X Y Z

Bejelit - Victorys Now tab

Help us improve GuitareTab! Take a short survey!
-------------------------------------------------------------------------------
			  VICTORY'S NOW - Bejelith
-------------------------------------------------------------------------------
Tabbed by: Shard Heilia	
Email: ShardNet@gmail.com
 
Tuning: Standard




Intro ( 2x ):

|---------------------------------------------------------------------------|
|-3---------3-----------3---------------------------------------------------|
|-2---------2-----------2---------------------------------------------------|
|-0-0-0-0-0-0-0-0-0-0-0-0-0-0-0-0-0-0-2-3---2-3--3-------------3------------|
|-----------------------------------------3------1-1-1-1-1-1-1-1-1-1-1-1-1--|
|---------------------------------------------------------------------------|


|---------------------------------------------------------------------------|
|---------------------------------------------------------------------------|
|---------------------------------------------------------------------------|
|---------------------------------------------------------------------------|
|---0-3---0-3---0-3---0-3---------------------------------------------------|
|-1-----1-----0-----0-------------------------------------------------------|


Intro Melody:


|---------------------------------------------------------------------------|
|----5-3-2---5-3-2---3-2-0---2-2h3p2-0----5-3-2---5-3-2---------------------|
|--3-------3-------0-------2------------3-------3---------------------------|
|--------------------------------------------------------3-3-3--5-5-5-------|
|--------------------------------------------------------1-1-1--3-3-3-------|
|---------------------------------------------------------------------------|


Verse 1 ( 2x ):

|---------------------------------------------------------------------------|
|---------------------------------------------------------------------------|
|---------------------------------------------------------------------------|
|-7-----5-7-----5-3---5------10-9--9-7---5-7--------------------------------|
|-5-----3-5-----3-1---3------8--7--7-5---3-5--------------------------------|
|---------------------------------------------------------------------------|



Prechorus:


|---------------------------------------------------------------------------|
|---------------------------------------------------1-3-1-------------------|
|-2-0-2--0-2-3-2-0------------------0-2--0-2-3--2-3-------3-2-0-------------|
|------------------3--3------5----3------------------------------3----------|
|---------------------1---3--3-----------------------------------1----------|
|-------------------------1-------------------------------------------------|

|---------------------------------------------------------------------------|
|-3-1-3-1-3-4-3-1---3-------------------------------------------------------|
|-----------------3-2-------------------------------------------------------|
|-------------------0---------2--5------------------------------------------|
|-----------------------3--5--0--3------------------------------------------|
|-----------------------1--3------------------------------------------------|

Chorus:


|---------------------------------------------------------------------------|
|-3---------3-----------3-------------3-------------------------------------|
|-2---------2-----------2-------------2-------------------------------------|
|-0-0-0-0-0-0-0-0-0-0-0-0-0-0-0-0-0-0-0-0-0-0-0--3-------------5------------|
|------------------------------------------------1-1-1-1-1-1-1-3-3-3-3-3-3--|
|---------------------------------------------------------------------------|


|---------------------------------------------------------------------------|
|---------------------------------------------------------------------------|
|---------------------------------------------------------------------------|
|---------------------------------------------------------------------------|
|---0-3---0-3---0-3---0-3---------------------------------------------------|
|-1-----1-----0-----0-------------------------------------------------------|

Bridge 1:

|---------------------------------------------------------------------------|
|---------------------------------------------------------------------------|
|---------------------------------------------------------------------------|
|--7---7-3----3-------------------------------------------------------------|
|--5---5-1----1-5-----3-2---------------------------------------------------|
|---------------3-----1-0---------------------------------------------------|

Verse 2:
                                (4x)
|---------------------------------------------------------------------------|
|-------------------1-3-1---------------------------------------------------|
|-----0-2-0-2-3-2-3-------3-2-0---------------------------------------------|
|---3----------------------------------3--5--10-9-9-7----5-7----------------|
|--------------------------------------1--3--8--7-7-5----3-5----------------|
|---------------------------------------------------------------------------|

Prechorus

Chorus

Bridge 2:

|---------------------------------------------------------------------------|
|--3*-----------------------------------------------------------------------|
|---------------------------------------------------------------------------|
|---------------------------------------------------------------------------|
|---------------------------------------------------------------------------|
|---------------------------------------------------------------------------|

Harmonic + Feedback + Whammy bar dives


|----15-15-17-18-17h18p17-15----15h17p15-------------15---------------------|
|-15-------------------------18----------18-16-15h16----18-16-15-16-18-16---|
|---------------------------------------------------------------------------|
|---------------------------------------------------------------------------|
|---------------------------------------------------------------------------|
|---------------------------------------------------------------------------|

|---------------------------------------------------------------------------|
|-15-----------15~~---------------------------------------------------------|
|-----17-15-17--------------------------------------------------------------|
|---------------------------------------------------------------------------|
|---------------------------------------------------------------------------|
|---------------------------------------------------------------------------|

Solo ( 4x ):


|-17p13----13-17p13----13-17p13----13-17p13----13-17p13----13-17p13----13---|
|-------15----------15----------15----------15----------15----------15------|
|---------------------------------------------------------------------------|
|---------------------------------------------------------------------------|
|---------------------------------------------------------------------------|
|---------------------------------------------------------------------------|

|-17p13----13-17p13-----18p15----15-18p15----15-18p15----15-18p15----15-----|
|-------15----------15--------15----------15----------15----------15--------|
|---------------------------------------------------------------------------|
|---------------------------------------------------------------------------|
|---------------------------------------------------------------------------|
|---------------------------------------------------------------------------|

|-18p15----15-18p15----18p15----18p15----15-18p15----20p17----17-20p17----17|
|-------15----------15-------15-------15----------15-------17----------17---|
|---------------------------------------------------------------------------|
|---------------------------------------------------------------------------|
|---------------------------------------------------------------------------|
|---------------------------------------------------------------------------|

|-20p17----17-20p17----20p17----17-20p17----20p17----17-20p17----17---------|
|-------17----------17-------17----------17-------17----------17------------|
|---------------------------------------------------------------------------|
|---------------------------------------------------------------------------|
|---------------------------------------------------------------------------|
|---------------------------------------------------------------------------|

|-18p15----15-18p15----15-18p15----15-18p15----15p12----12-15p12------------|
|-------15----------15----------15----------15-------13----------13---------|
|---------------------------------------------------------------------------|
|---------------------------------------------------------------------------|
|---------------------------------------------------------------------------|
|---------------------------------------------------------------------------|

|-15p12----12-15p12----12---------------------------------------------------|
|-------13----------13------------------------------------------------------|
|---------------------------------------------------------------------------|
|---------------------------------------------------------------------------|
|---------------------------------------------------------------------------|
|---------------------------------------------------------------------------|


Melody 2:


|---------------------------------------------------------1-0---0-----------|
|----5-3-2---5-3-2---3-2-0---2-2h3p2-0----5-3-2---5-3-2-------3---3-1-3-1---|
|--3-------3-------0-------2------------3-------3---------------------------|
|---------------------------------------------------------------------------|
|---------------------------------------------------------------------------|
|---------------------------------------------------------------------------|

|---------------------------------------------------------------------------|
|---1-----------------------------------------------------------------------|
|-3---3-2-------------------------------------------------------------------|
|---------------------------------------------------------------------------|
|---------------------------------------------------------------------------|
|---------------------------------------------------------------------------|


|---------------------------------------------------------------------------|
|----5-3-2---5-3-2---3-2-0---2-2h3p2-0----5-3-2---5-3-2---------------------|
|--3-------3-------0-------2------------3-------3---------------------------|
|---------------------------------------------------------------------------|
|---------------------------------------------------------------------------|
|---------------------------------------------------------------------------|

|-1-0---0------------------3-1-0-1-0---0-----------5-3-1-3-1-0-1-0---0------|
|-----3---3-1-3-1---1----------------3---3-1-3-1-0-----------------3---3-1--|
|-----------------3---3-2---------------------------------------------------|
|---------------------------------------------------------------------------|
|---------------------------------------------------------------------------|
|---------------------------------------------------------------------------|



Order:
Intro
Intro Melody
Verse 1
Prechorus
Chorus
Bridge 1
Verse 2
Prechorus
Chorus
Bridge 2
Solo
Melody 2
Chorus

Fun song to play. Enjoy. Send any corrections or comments to ShardNet@gmail.com.



Related for Victorys Now tab