Song name
# A B C D E F G H I J K L M N O P Q R S T U V W X Y Z

Bekker - Shade Of Red tab

I have been getting a lot of requests for this so here it is. So this song is 
actually REALLY easy and kinda fun to play. The whole song is 4 chords! Standard 
tuning and CAPO on the 5th fret. 

e|-2---0----2---0------------|
B|-3---3----3---3------------|
G|-2---0----0---0------------|
D|-0---0----0---0------------|
A|-x---2----0---2------------| 
E|-x---0----3---0------------|

this is the whole song except the very first time i play
"your to good for me, she was quick to respond, she was quick to be strong..." 

e|-1---0----0---2---3--------|
B|-3---0----2---3---0--------|
G|-2---0----0---0---0--------|
D|-0---2----2---0---0--------|
A|-x---2----0---0---2--------| 
E|-x---0----0---3---0--------|

just listen 2 the song and play along and you should be good : )
thanks!!
matt bekker
Tap to rate this tab
# A B C D E F G H I J K L M N O P Q R S T U V W X Y Z