Song name
# A B C D E F G H I J K L M N O P Q R S T U V W X Y Z

Bela B - Rockula tab

Bela B - Rockula
Tabbed by esad
Tuning: Standard

Verse
E||----------------------------------------------------||
B||----------------------------------------------------||
G||----------------------------------------------------||
D||----2-5-5-0-2-2-0---------------2-5-5-0-2-5-2-------||
A||2-5---------------5-2-------2-5---------------5-----||
E||----------------------5p0---------------------------||

E||----------------------------------------------------||
B||----------------------------------------------------||
G||----------------------------------------------------||
D||----2-5-5-0-2-2-0---------------2-4-4-0-2-4-0-------||
A||2-5---------------5-2-------2-5---------------2-----||
E||----------------------5p0---------------------------||

Pre-Chorus
E||---------------------------------------||
B||---------------------------------------||
G||-----77----11-7----------7-------------||
D||779--779---11-7--9--779--7-9----x-5--7-||
A||779--559---9--5--9--779--5-9----x-5--7-||
E||557----7---------7--557----7----x-3--5-||

Chorus
E||---------------------|  |---------------------|  |-------------------|
B||---------------------|  |---------------------|  |-------------------|
G||---7-----------------|2x|---7-----------------|1x|------7------------|1x 
D||9--7--5--7-----------|  |9--7--7--5-----------|  |---9--7--8--6--2---|
A||9--5--5--7--55-44----|  |9--5--7--5---7-8-----|  |---9--5--8--6--2---|
E||7-----3--5-----------|  |7-----5--3---5-6-----|  |---7-----6--3--0---|

Bridge
E||------------------||
B||------------------||
G||------------------||1x   
D||-----2-------2----||
A||-2-5-----2-5------||
E||------------------||

Verse:


Pre-Chorus
E||----------------------------------------||
B||----------------------------------------||
G||-77---------11-7-----77---7-------------||
D||-779--779---11-7--9--779--7-9----x-5--7-||
A||-559--779---9--5--9--559--5-9----x-5--7-||
E||---7--557---------7----7----7----x-3--5-||

Chorus:
Variation in the midle:
Chorus
E||---------------------|
B||---------------------|
G||---7-----------------|
D||9--7--8--5--7--------| then Chorus again
A||9--5--8--5--7--------|
E||7-----6--3--5--------|


Ending
E||---------------------|
B||---------------------|
G||---7-------------77--|
D||9--7--8--5--2----779-|
A||9--5--8--5--2----559-|
E||7-----6--3--0------7-|
Tap to rate this tab
# A B C D E F G H I J K L M N O P Q R S T U V W X Y Z