Song name
# A B C D E F G H I J K L M N O P Q R S T U V W X Y Z

Bela B - Als Wir Unsterblich Warn chords

Highlighted       Show chord diagrams
BELA B - Als wir unsterblich waren (Code B)
Tabbed by: Viktor (KTA)

Zumindest in den Strophen am besten nur Powerchords verwenden.


___Intro___

   H                   c#m                   E        F#         H
e:--------------------|--------------------|-------------------|--------------------|
H:--------------------|--------------------|-------------------|--------------------|
H:--------------------|--------------------|-------------------|--------------------|
D:------4---------4---|------6---------6---|----------4----4---|------4---------4---|
A:-2--2----2-2--2----2|-4--4----4-4--4----4|-2---2--2----4---4-|-2--2----2-2--2-----|
E:--------------------|--------------------|-------------------|--------------------|

   H                   D                     E        F#         H
e:--------------------|--------------------|-------------------|--------------------|
H:--------------------|--------------------|-------------------|--------------------|
G:--------------------|--------------------|-------------------|--------------------|
D:------4---------4---|------7---------7---|----------4----4---|------4-------------|
A:-2--2----2-2--2----2|-5--5----5-5--5----5|-2---2--2----4---4-|-2--2----2~---------|
E:--------------------|--------------------|-------------------|--------------------|


___Strophe 1___

            H
Als wir unsterblich warn,
                            c#m
machten wir schlimme Dinge mit unsern Haarn
                    E
Ich weiss noch, wir rannten
                         F#
zu Bands, die wir nicht kannten,
              H
damit wir die ersten warn


                 H                 
Weil wir nie schlafen gingn,
                             D
die ganze Nacht nur in den Clubs rumhingn,
                     E
warn wir blass und kraenklich
                  F#
Wir schwankten bedenklich,
                  H
wenn wir mal nachhause gingn



___Uebergangstoene___

  (H)               (F#)
e:...-------------|-----...
H:...-------------|-----...
H:...-(4)---------|-----...
D:...-(4)---------|-(4)-...
A:...-(2)---2-1---|-(4)-...
E:...-----------4-|-(2)-...



___Refrain___

F#                          H          G
    Und jeder spielte irgendein Instrument
F#                                E         G
    Hauptsache, du warst Mitglied in einer Band
F#                              H       G
    Fuer all die andern war der Zug abgefahrn
     F#                          H
    damals, als wir unsterblich warn



___Strophe 2___
   (Wie vorher. Das "D" statt "c#m" in der 2ten Haelfte nicht vergessen!)

Als wir unsterblich warn
Und voellig ohne Zukunft auskamn,
weil jede neue Platte
die naechste Wahrheit hatte,
wollten wir mehr erfahrn

Mit jedem neuen Tanz
wuchs unsre Arroganz,
weil wir nicht wollten,
was wir wollen sollten
Freiheit statt Akzeptanz

___Uebergangstoene___
   (Wie vorher.)



___Refrain___
   (Fast wie vorher, nur laenger.)
F#                               H           G
    Musik als Zentrum, denn sie gab uns den Sinn
F#                            E             G
    Nur deshalb bin ich der, der ich jetzt bin
           F#                             H             G
Doch, dass ich mal zurueckblicke, war mir damals nicht klar
     F#                       H
     ... als ich unsterblich war
     F#                       H
     ... als wir unsterblich warn 



___Outro___

             c#m
(als wir unsteeerblich warn)
            E            F#
als wir unsterblich warn
            H
als wir unsterblich warn
             c#m
(als wir unsteeerblich warn)
            E            F#
als wir unsterblich warn 
            H
als wir unsteeerblich warn
             D
(als wir unsteeerblich warn)
E  F#  H

E  F#  (*)



___H-Tonleiter-Finale___

    (*)
e:|----------------------|---...
H:|----------------------|---...
H:|----------------------|---...
D:|----------------------|-4-...
A:|-2--1-------------2---|-4-...
E:|-------4--2--0^2^4 ---|-2-...
Tap to rate this tab
# A B C D E F G H I J K L M N O P Q R S T U V W X Y Z