Bela B - Liebe Und Benzin chords

Highlighted       Show chord diagrams
Bela B - Liebe & Benzin
===================================
tabbed by: Jazzmyass
E-Mail: Jazzmyass[at]live[dot]de

   C  Hm  Em   D   Am
1:---|-2-|---|-2-|---|
2:-1-|-3-|---|-3-|-1-|
3:-0-|-4-|---|-2-|-2-|
4:-2-|-4-|-2-|-0-|-2-|
5:-3-|-2-|-2-|---|---|
6:---|---|---|---|---|

Intro:

  C     Em       C      Em            C     
Em      Hm          Hm

1:---8-|7--7-5---5---8-|-7---7-10-7-5-5---8-|7-7-5---7---------|-17----17---|
2:-8---|-------8---8---|----------------8---|------8---7--8-10-|---16----16-|
3:-----|---------------|--------------------|------------------|------------|
4:-----|---------------|--------------------|------------------|------------|
5:-----|---------------|--------------------|------------------|------------|
6:-----|---------------|--------------------|------------------|------------|


1.Strophe:


Hm
Ich sitz an der Kasse,kassier für Benzin.

Bin gelangweilt von mir und das sehr.

Beim Glück durften sich nur die andern bedienen.

Mein Leben ist trostlos und leer.
Em
Ich bin der König auf dem Loserthron.
     Hm
Das Pech hat ein Haus gebaut

und ich darf da mietfrei wohnen.


2.Strophe:

C                            Em              Hm
Da trittst du herein und das Herz bleibt mir stehen.
   C                        Em  Hm
Du steuerst direkt auf mich zu.
    C                     Em         Hm
Nie hab ich ein schöneres Mädchen gesehen.
    C
Und wärend ich mein Glück kaum fasse
Am                 Hm
greifst du in die Tageskasse...

und sagst..


C                   Em
Hey, I´m not in the mood
                  C                 Em
Gimme me all your money and I won´t shoot.
         C                        Em
You will survive if you stay that cute
          Hm         C  D  Hm
and live forever...


Interlude:

  Hm

1:-17--------17------|
2:------16--------16-|
3:-------------------|
4:-------------------|
5:-------------------|
6:-------------------|

3. Strophe:

Hm
I needed some money, I needed it bad.

So desperatly - I bought a gun.

Luck always was something never I had

and a robbery sounded like fun.
  Em
I reached the point of nothing left to loose.
   Hm
It was my believe there was nothing left to choose?


4. Strophe:
C                                 Em           Hm
I walked throught the door,  only one thing in mind:
C                        Em     Hm
My pistol, myself and my plan.
    C                     Em            Hm
But there was this guy,so different, so kind.
C
I raised the gun and played my card
    Am                  Hm
but then he spoked and staked my heart:


C                 Em
Hey, nimm all das Geld!
         C                            Em
Nur nimm mich mit,bis ans Ende dieser Welt.
            C                  Em
Wo sich die Liebe dann zu uns gesellt
               Hm        C  D
und sagt: "Für immer!"

C                     Em
We take the money and run
                  C                       Em
to the end of the world,to the end of the sun.
            C                   Em
Nothing can stop us - nobody - noone...
              Hm    C D
and that´s forever.

C            Em ( C Em C Em)   
 C D
La,la,la,la,la................ la


(Interlude)
Hm
Forever...
Hm
Forever...
Hm
Forever...
Hm
Forever...
Tap to rate this tab
 
# A B C D E F G H I J K L M N O P Q R S T U V W X Y Z