Song name
# A B C D E F G H I J K L M N O P Q R S T U V W X Y Z

Bela Fleck And The Flecktones - Circus Of Regrets tab

This is the piano intro from the tune Circus of Regrets from the album Tales from 
the Acoustic Planet. It forms the harmonic basis for the rest of the tune as well. Enjoy!

-----0--0---------------|-----------------------|-----------------------|
-----1--1------3--3--3--|-----1--1-----1--1--1--|-----0--0--------------|
---------------4--4--4--|-----2--2-----2--2--2--|-----0--0-----2--2--2--|
------------2-----------|--3--------0-----------|--1-----------3--3--3--|
--0---------------------|-----------------------|-----------3-----------|
------------------------|-----------------------|-----------------------|

-------------------------||
-------------------------||
-----0--0---------------.|| (repeat)
-----2--2------3--3--3--.||
--4------------5--5--5---||
------------6------------||

-----0--0------3--3--|-----1--1-----5-----3--|-----1-----0--------------|
-----1--1------5--5--|-----3--3-----6-----5--|-----3-----1-----3-----1--|
---------------------|-----------------------|-----------------4-----2--|
---------------------|-----------------------|--------------------------|
--0------------------|--2--------3-----4-----|--------0-----------------|
------------6--------|-----------------------|--4-----------0-----1-----|
           _
          /.\   (hold)
--------------||
-----0--------||
-----0-----2--||
-----------3--||
--------1-----||
--4-----------||
Tap to rate this tab
# A B C D E F G H I J K L M N O P Q R S T U V W X Y Z