Belakor - Countless Skies tab

Time signature: 7/4
Tempo: 150

First part of the intro:

E|---------------------------------------------------------|
B|---------------------------------------------------------|
G|---------------------------------------------------------|
D|---------------------------------------------------------|
A|-6---6-----------6---6-----------6---6-----------6---6---|
E|---------6---6-----------6---6-----------6---6-----------|

E|---------------------------------------------------------|
B|---------------------------------------------------------|
G|---------------------------------------------------------|
D|---------------------------------------------------------|
A|-4---4-----------4---4-----------4---4-----------4---4---|
E|---------6---6-----------6---6-----------6---6-----------|

E|---------------------------------------------------------|
B|---------------------------------------------------------|
G|---------------------------------------------------------|
D|---------------------------------------------------------|
A|-3---3-----------3---3-----------3---3-----------3---3---|
E|---------4---4-----------4---4-----------4---4-----------|

E|---------------------------------------------------------|
B|---------------------------------------------------------|
G|---------------------------------------------------------|
D|---------------------------------------------------------|
A|-2---2-----------2---2-----------2---2-----------2---2---|
E|---------4---4-----------4---4-----------4---4-----------|

Second part of the intro (played twice together with the first part; get's repeated at 
and 6:37)

E|---------------------------------------|------------------------------------------|
B|---------------------------------------|------------------------------------------|
G|---------------------------------------|------------------------------------------|
D|---------------------------------------|------------------------3---4---6---------|
A|-6--------6--------6----9----8---------|-4--------4--------4-----------------6----|
E|------6--------6------------------6----|------6--------6--------------------------|


E|------------------------------------------|------------------------------------------|
B|------------------------------------------|------------------------------------------|
G|------------------------------------------|------------------------------------------|
D|------------------------------------------|------------------------------------------|
A|-9--------3--------6----9---8---6---------|-3--------6--------3----9---8---6---------|
E|------6--------4---------------------6----|------4--------4---------------------6----|
Tap to rate this tab
 
# A B C D E F G H I J K L M N O P Q R S T U V W X Y Z