Song name
# A B C D E F G H I J K L M N O P Q R S T U V W X Y Z

Belay My Last - The Downfall tab

--------------------------------------|
--------------------------------------|
--------------------------------------|
--------------------------------------|
-0------------------------------------|
-0-5--5--5/9-9101213-121315161516/19--|
-0--44-44-----------------------------|

--------------------------------------------|
--------------------------------------------|
--------------------------------------------|
-0------------------------------------------|
-0-5--5--5/9-9101213-121315161516/19--------|
-0--44-44----------------------------16~15~-|

--------------------------------------|
--------------------------------------|
--------------------------------------|
--------------------------------------|
-0-------------------781011-9*--------|
-0-5--5--5/9-9101213------------------|
-0--44-44-----------------------------|

------------------------------------------------------|
------------------------------------------------------|
------------------------------------------------------|
-0----------------------------------------------------|
-0-5--5--5/9-9101213-121315161516/19------------------|
-0--44-44----------------------------16~-15~-12~-13~--|
Tap to rate this tab
# A B C D E F G H I J K L M N O P Q R S T U V W X Y Z