Song name
# A B C D E F G H I J K L M N O P Q R S T U V W X Y Z

Belinda Carlisle - Leave A Light On tab

Hallo, my name is Vladimir, Im from Serbia.
...another great song of '80s...




          Belinda Carlisle - Leave A Light On
            (album: Runaway Horses, 1989)



e|---------------------------------------------------------------------------------|
B|-------3/5-----------------6--5-3-1-5-3-1-1--5-6-8\0-0-0-----6/8--5-3-1-5-3-1-1--|
G|---3/5------7-5-7--4-4--2/5-------------------------------2/5--------------------|
D|---------------------------------------------------------------------------------|
A|---------------------------------------------------------------------------------|
E|---------------------------------------------------------------------------------|


e|--------------------------------------------5---8/10-5-8-7-5\---|
B|---5-6-6/8\3-3-3--3-5-6/8\6--5-7-8/10\8--5/7--------------------|
G|----------------------------------------------------------------|
D|----------------------------------------------------------------|
A|----------------------------------------------------------------|
E|----------------------------------------------------------------|



| /  slide up
| \  slide down
| h  hammer-on
| p  pull-off
| ~  vibrato
| +  harmonic
| x  Mute note


Any comments post me at tordajav@yahoo.com
Tap to rate this tab
# A B C D E F G H I J K L M N O P Q R S T U V W X Y Z