Song name
# A B C D E F G H I J K L M N O P Q R S T U V W X Y Z

Belisha - Want tab

------------------------------------------------------------------------------------------
			     Want - Belisha
------------------------------------------------------------------------------------------
Tabbed by: Stevie B
Email:stevie_b_@msn.com

Tuning: Standard (eBGDAE)

(Verse)
e--------------------------------------------------------------------------------------|
B--------------------------------------------------------------------------------------|
G--------------------------------------------------------------------------------------|
D-4-4-4x--4-4-4x-4-4-6x-6-6-6x-6-6-6x-6-6-7x-7-7-7x-7-7-7x-7-7-9x-9-9-9x-9-9-9x--9-11x-|
A-4-4-4x--4-4-4x-4-4-6x-6-6-6x-6-6-6x-6-6-7x-7-7-7x-7-7-7x-7-7-9x-9-9-9x-9-9-9x--9-11x-|
E-2-2-2x--2-2-2x-2-2-4x-4-4-4x-4-4-4x-4-4-5x-5-5-5x-5-5-5x-5-5-7x-7-7-7x-7-7-7x--7--9x-|

(Chorus)
e---------------------------------------------|
B---------------------------------------------|
G---------------------------------------------|
D-4-4-4-4-4-3-4-4-4-4-4-6-6-6-6-6-4-6-6-6-6-6-|
A-4-4-4-4-4-3-4-4-4-4-4-6-6-6-6-6-4-6-6-6-6-6-|
E-2-2-2-2-2-1-2-2-2-2-2-4-4-4-4-4-2-4-4-4-4-4-|
    . .         . .       . .         . .

e----------------------------------------------|
B----------------------------------------------|
G----------------------------------------------|
D-7-7-7-7-7-6-7-7-7-7-7-9-9-9-9-9-7-9-9-9-9-11-|
A-7-7-7-7-7-6-7-7-7-7-7-9-9-9-9-9-7-9-9-9-9-11-|
E-5-5-5-5-5-4-5-5-5-5-5-7-7-7-7-7-5-7-7-7-7--9-|  
    . .         . .       . .         . . 

| /  slide up
| \  slide down
| h  hammer-on
| p  pull-off
| ~  vibrato
| +  harmonic
| x  Mute note
==========================================================================================
Tap to rate this tab
# A B C D E F G H I J K L M N O P Q R S T U V W X Y Z