Song name
# A B C D E F G H I J K L M N O P Q R S T U V W X Y Z

Belisha - Chrysalids tab

-------------------------------------------------------------------------------
			     The Chrysalids - Belisha
-------------------------------------------------------------------------------
Tabbed by: Stevie B
Email: Stevie_b_@msn.com

Tuning: Standard (EADGBe)

(intro)
e|------------------------|
B|------------------------|
G|-----------------3-5----|
D|-5-5x-3-5~---5-5-3-5-5~-|
A|-5-5x-3-5~---5-5-1-3-5~-|
E|-3-3x-1-3~---3-3-----3~-|

(verses)
e|------------5-----------------|
B|----------3---5-3-------------|
G|----------------------3-5-----|
D|-5-5x-3-5---------5-5-3-5-5~--|
A|-5-5x-3-5---------5-5-1-3-5~--|
E|-3-3x-1-3---------3-3-----3~--|

(chorus)
e|---------9-11----------|
B|--------------9-11---8-|
G|-----3-5-----------9---|
D|-3-5-3-5---------------|
A|-3-5-1-3---------------|
E|-1-3-------------------|
   . . . . (about 16 times per chord)

(bridge)
e|-9-11----------|
B|------9-11---8-|
G|-----------9---|
D|---------------| x4
A|---------------|
E|---------------|

e|----------------|
B|----------------|
G|---3-5------3-5-|
D|-5-3-5--5-5-3-5-| x12
A|-5-1-3--5-5-1-3-|
E|-3------3-3-----|


| /  slide up
| \  slide down
| h  hammer-on
| p  pull-off
| ~  let ring
| +  harmonic
| x  Mute note
===============================================================================
Tap to rate this tab
# A B C D E F G H I J K L M N O P Q R S T U V W X Y Z