Song name
# A B C D E F G H I J K L M N O P Q R S T U V W X Y Z

Bell X1 - White Water Song tab

Help us improve GuitareTab! Take a short survey!
Song: 	White Water Song
Artist: BellX1
Album:	Music In Mouth
Tabber: Trent Steel


r = ring
~ = vibrate
b = bend
/ = slide
pm= palm mute



Intro:

 		(2 Guitars Palm Mute These Riffs)
E|--9--------|----------------------------------------------------|
B|--10-------|--11-11-11-11-11-11-11-11---------------------------|
G|--11-------|--11-11-11-11-11-11-11-11---------------------------|
D|--11-------|---0--0--0--0--0--0--0--0---------------------------|
A|--9--------|----------------------------------------------------|
E|-----------|----------------------------------------------------|
  <-------------------------------pm----------------------------->




Main Riff:


E|----------------------------------------------------------------|
B|----------------------------------------------------------------|
G|----------------------------------------------------------------|
D|--9-9-9-9-7-7--9-9-9-9-7-7--5-5-5-5-7-7--5-5-5-5-7-7------------|
A|--9-9-9-9-7-7--9-9-9-9-7-7--5-5-5-5-7-7--5-5-5-5-7-7------------|
E|--7-7-7-7-5-5--7-7-7-7-5-5--3-3-3-3-5-5--3-3-3-3-5-5------------|





Break:

		   "And All The Kings Men"	 
e|------------------------------|--------------------------------|
B|------------------------------|--------------------------------|
G|-9-9b-9-9b-9-9b-9-7b-7b-7b-6--|-9b-9b-9b/11b-11b-11b-----------|
D|------------------------------|-0--0--0---0---0---0------------|
A|-----------------------(x2)---|-----------------------(x2)-----|
E|------------------------------|--------------------------------|




Can't get this out 100% because of the grungy guitars, but its a start.  Listen to the
song for timing, most of its right especially the main riff.
Related for White Water Song tab