Song name
# A B C D E F G H I J K L M N O P Q R S T U V W X Y Z

Bell X1 - Ill See Your Heart And Ill Raise You Mine tab

Help us improve GuitareTab! Take a short survey!
Highlighted       Show chord diagrams
-------------------------------------------------------------------------------
     I'LL SEE YOUR HEART AND I'LL RAISE YOU MINE - Bell X1
-------------------------------------------------------------------------------
Tabbed by: Reyce
Email: Spaggy_T@hotmail.com

Tuning: EADGBe

VERSE:
D
What's with the angel
D
and what's with the devil
D                   Badd9
They keep swapping shoulders
                         D
and I can't tell which from which
D
"Will you be my Kriskindle?
D
Will you be my better nature?"
                Badd9
says one to the other
                         A
But I think they're only showing off

D
I caught them play poker
D
and I think it was the devil who said

CHOURS:
Badd9
"I'll see your heart
and I'll raise you mine"

A
"I'll see your heart
and I'll raise, I'll raise you mine"

VERSE2:
D                       Badd9
Yea, they keep swapping shoulders
                                A
I think there's something going on
                      D
"Will you be my sweet pea?
D
Will you be the card up my sleeve?"
                Badd9
says one to the other
                              A
and this time they hold their gaze
for too long

                    D
Now they're playing poker
D
and this time it's the angel who says

CHORUS:
Badd9
"I'll see your heart
and I'll raise you mine"

A
"I'll see your heart
and I'll raise you mine"

Badd9
"I'll see your heart
and I'll raise you mine"

A
"I'll see your heart
and I'll raise, and I'll raise you mine"

VERSE3:
D
This is the story of the angel
D
who played poker with the devil
D
in the Garden of Eden
D
before it all went pear shaped
D(1hit)
They said

CHORUS/OUTRO:
Badd9
Lah la, lah la la la lah
A
lah la, lah la la la lah la la    x2

Badd9
"I'll see your heart
and I'll raise you mine"

A
"I'll see your heart
and I'll raise you mine"

D (until close)

The D is played like this
e|--2-----2-----2-----2-------|
B|-----3-----3-----3-----3----|
G|--2--2--2--2--2--2--2--2----|
D|----------------------------|
A|----------------------------|
E|----------------------------|

And the Badd9 Like
e|--------------------------|
B|-----3-----3-----3-----3--|
G|--4-----4-----4-----4-----|
D|-----4-----4-----4-----4--|
A|--2-----2-----2-----2-----|
E|--------------------------|

And lastly the A
e|-------------------------------|
B|---2-----2-----2-----2---------|
G|------2-----2-----2-----2------|
D|---2-----2-----2-----2---------|
A|------0-----0-----0-----0------|
E|-------------------------------|

It might take awhile to get used to but it sounds awesome
===============================================================================
Related for Ill See Your Heart And Ill Raise You Mine tab