Song name
# A B C D E F G H I J K L M N O P Q R S T U V W X Y Z

Belle And Sebastian - Fox In The Snow tab

Solo:

e|-----------------------------------------|
B|-----------------------------------------|
G|-----------------------------------------|
D|----6-6---6-8-8-10-11-10-8-6-8-6-8-------|
A|--8-----8--------------------------4-6-8-|
E|-----------------------------------------|

e|------------------------------------------------------------|
B|------------------------------------------------------------|
G|------------------------------------------------------------|
D|----6-6---6-8-8-10-11-10-8-6-8-6-8--------------------------|
A|--8-----8--------------------------4-6-8----8-8-9-8-6-8-6-4-|
E|------------------------------------------------------------|

 Great song!
 tabs done by Louis
 age 11!
Tap to rate this tab
# A B C D E F G H I J K L M N O P Q R S T U V W X Y Z