Song name
# A B C D E F G H I J K L M N O P Q R S T U V W X Y Z

Belle And Sebastian - Seymour Stein tab

Seymour Stein by Belle & Sebastian - Tabbed my Scottimus Prime

This is my first tab ever. It's not perfect but better than the only other one I could find.
The guitar is so quiet most of the song, so it was difficult to discern how to 
finger-pick some of the chords later in the song, but it's in some alternating manner.
I didn't include the strum pattern for the chords at the beginning, but it's not hard to 
figure out. Enjoy!

Standard tuning
Capo 7th Fret

G        320003
C/G      3x2013
D        xx0232
Cadd9    x32030

~ 86 bpm          Hammer on G>>C/G

||G   |C/G  ||X5 (Transition of the C/G back to G single pick: B||---1-0|>>G)

 |D   |Cadd9|

||G   |C/G  || X3 |\
 |                | }X2
 |D   |Cadd9|     |/


e||-----1---|-----3---|-----5---|-----3---||---------------------|
B||---------|---------|---------|---------||---------------------|
G||---2---2-|---4---4-|---5---5-|---4---4-||X2-------------------|
D||-3-------|-5-------|-7-------|-5-------||---------------------|
A||---------|---------|---------|---------||---------------------|
E||---------|---------|---------|---------||---------------------|
                                                 (C) 1 measure
e||-----1-1-|-11--111-|-----3-3-|-33--333-||----|-3------------|
B||---------|-11--111-|---------|-33--333-||----|-5------------|
G||---2--2--|-22--222-|---4--4--|-44--444-||X2--|-5------------|
D||-3-------|-33--333-|-5-------|-55--555-||----|-5------------|
A||---------|---------|---------|---------||----|-3------------|
E||---------|---------|---------|---------||----|--------------|

G & C/G to end as in the intro

2nd guitar near end e||-3--|3/7-5-3|----3----|
                    B||-3--|3/8-5-3|-3-5--5-3|
                    G||----|-------|--4------|
Tap to rate this tab
# A B C D E F G H I J K L M N O P Q R S T U V W X Y Z