Song name
# A B C D E F G H I J K L M N O P Q R S T U V W X Y Z

Belle And Sebastian - Little Lou Ugly Jack Prophet John tab

There's a great chords tab:
http://tabs.ultimate-guitar.com/b/belle_and_sebastian/
little_lou_ugly_jack_prophet_john_crd_996456id_18102010date.htm
, but the solo is missing, so...:


-------------------------------------------------------------|
--------4-----------------------------------------------4-4--|
-----3--3h5--3-3----------------------------------------3-3--|
-3s5-------------6-6-5-3s5--3s5---3-5-3-----------3-s5-------|
-----------------------------------------6-6-3-s6------------|
-------------------------------------------------------------|

-------------------------------------------------------------|
--------------------------4-4-------------------3------------|
--3h5p3---3---------------3-3----3-5--3-3--3-5---5-3---------|
--------5--------3----3-5------5----------5------------------|
------------s3-6----6----------------------------------------|
-------------------------------------------------------------|
Tap to rate this tab
 
# A B C D E F G H I J K L M N O P Q R S T U V W X Y Z