Song name
# A B C D E F G H I J K L M N O P Q R S T U V W X Y Z

Belle And Sebastian - Stars Of Track And Field tab

This is the trumpet solo in the middle of the song that I converted into guitar. It's 
easy and sounds good! Pretty sure it's all correct, if it isn't then let me know! Thanks!

h - hammer on
~ - slide
p - pull off


e|------2--0--------------|  |------2--0---------4-4-4|
B|--2-4------2-4-0---5-5-5|  |--2-4------2-4-0--------|
G|4----------------2------|  |4----------------2------|
D|------------------------|  |------------------------|
A|------------------------|  |------------------------|
E|------------------------|  |------------------------|

                         then..

e|-333-333-~7-~3--33~2-2-22h4-2p0-0-00h2-0------------------------------|
B|-----------------------------------------4-4444h5-4-2-----------------|
G|----------------------------------------------------------------------|
D|----------------------------------------------------------------------|
A|----------------------------------------------------------------------|
E|----------------------------------------------------------------------|

( do this part ^ twice)

Just make sure you have the right rhythym of the song and it should all fit in.  Keep 
Guitar!

                                Kerdt Inndur
Tap to rate this tab
 
# A B C D E F G H I J K L M N O P Q R S T U V W X Y Z