Song name
# A B C D E F G H I J K L M N O P Q R S T U V W X Y Z

Belle And Sebastian - Dress Up In You tab

dress up in you by belle and sebastian - horn solos

tabbed by: kaiwynn
email: kaiwynn@gmail.com

i used a melodica (it's a kind of piano horn) to figure this out, then translated it into tabs.

there are two solos in this song: in the middle, before "i always loved you", and at the 
while they're saying "da da da da da".

standard tuning.


MIDDLE SOLO: (repeat twice)

e -9-9-9-------9-9-8-6---------------------------|
B -------9-------------9-7-9-----9-9-9-6---------|
G -----------------------------------------------|
D -----------------------------------------------|
A -----------------------------------------------|
E -----------------------------------------------|

e -6-6-------------------------------------------|
B -----9-7-6---6-----6-6-6-------7-7-6-----------|
G -----------8-------------6-----------8-6-------|
D -----------------------------------------------|
A -----------------------------------------------|
E -----------------------------------------------|

e ---------------------------6---6-----8-9-8-9-11-|
B ---6---------6-7-6-7-----9---9------------------|
G -8---8-8----------------------------------------|
D ------------------------------------------------|
A ------------------------------------------------|
E ------------------------------------------------|


END SOLO: (repeat as needed)

e -9-9-7-----------------------------------------|
B -------10-9-9-10-9-7---------------------------|
G ---------------------9-------------------------|
D -----------------------------------------------|
A -----------------------------------------------|
E -----------------------------------------------|

e ------------------6-8-9-11-9-------------------|
B -7-9-10-9-7-----9------------------------------|
G -----------------------------------------------|
D -----------------------------------------------|
A -----------------------------------------------|
E -----------------------------------------------|


thanks guys, email me if there are any problems.
Tap to rate this tab
# A B C D E F G H I J K L M N O P Q R S T U V W X Y Z