Guitaretab - guitar tabs
Song name
# A B C D E F G H I J K L M N O P Q R S T U V W X Y Z

Belle And Sebastian - Blues Are Still Blue tab

Belle and Sebastian

The blues are still blue solo

normal tuning

B                        C#

-------2------2------------4------7/8----------------------|
---------4------4------------6-----------------------------|
-----------4------4------------6---------------------------|
-----4-----------------------------------------------------|
---2-----------------2---4---------------------------------|
-----------------------------------------------------------|

B                        F#

------7-------7------7-6-2--------------------------------|
------------7----------------2----------------------------|
----------8------8-------------3--------------------------|
----9----------------------------4------------------------|
--9-------------------------------------------------------|
----------------------------------------------------------|

B                        F#
[ Tab from: http://www.guitaretab.com/b/belle-and-sebastian/71455.html ]
------7-------7------7-6-2--------------------------------|
------------7----------------2----------------------------|
----------8------8-------------3--------------------------|
----9----------------------------4------------------------|
--9-------------------------------------------------------|
----------------------------------------------------------|

                          A#       B      F#


---------14-11------------6--------7-------2--------------|
--14--11------------------6--------7-------2--------------|
--------------------------7--------8-------3--------------|
--------------------------8--------9-------4--------------|
--------------------------8--------9-------4--------------|
--------------------------6--------7-------2--------------|

------------------------------------------14/15~11---11-----|
--------14-14---11--14---------14---11-14~--------14~--14\0-|
-13-11------------------11-13-------------------------------|
------------------------------------------------------------|
------------------------------------------------------------|
------------------------------------------------------------|

By Chochos Cheuken Valdez (The trendies)

Comments or corrections to hectorbarrerav@hotmail.com

Oraleeeeeeeeeeeee!
Related for Blues Are Still Blue tab
Advertisement will be closed in 10 seconds