Song name
# A B C D E F G H I J K L M N O P Q R S T U V W X Y Z

Belle And Sebastian - Asleep On A Sunbeam tab

4/4

INTRO:
    D                 A      G
e---5-----5-5--|------3--3---2--2-----|
B---3-----3-3--|------3--3---3--3-----|
G---2-----2-2--|------2--2---2--2-----| x2
D--------------|----------------------|
A--------------|----------------------|
E--------------|----------------------|

VERSE 1:
D                                                A
When the half light makes for a clearer veiw.
Bm                G
Sleep a little more if you want to,
E                           A   G    D
but restlessness has seized me now it's true.
D                                                A
I could watch the dreams flicker in your eyes.
Bm              G
Lying here asleep on a sunbeam.
E                 A          A    G     D
I wonder if you realise you fascinate me so.

SOLO:
   D                                  A
e---------------|---------------|---------------|------------------|
B---------------|---------------|---------------|------------------|
G--2--2-0-2-----|---------------|-0-------------|------------------|
D---------------|--0--0-2-4-----|-----2----0----|--------0---------|
A---------------|---------------|---------------|--4-2-4---4--2--0-|
E---------------|---------------|---------------|------------------|

e----22------2p0|------5------5-|------5-3-2------|--9-7-9-9-10----|
B--33---3-------|---------------|-----------------|----------------|
G---------4-----|---33-----33---|--2h4--------2s6-|----------------|
D---------------|---------------|-----------------|----------------|
A---------------|---------------|-----------------|----------------|
E---------------|---------------|-----------------|----------------|

VERSE 3:

I thought about a new destination
I'm never short of new inspiration
Roll out the map and knock it with a gin.
I will follow every direction
just lace up your shoes while I'm fetching
a sleeping bag and tent.

CHORUS:
G                   E       A          G            F#
All I need is somewhere I feel the grass beneath my feet
	      G		         E
A walk on sand, a fire I can warm my hands
G		       D
My joy will be complete

(Then there's a second solo which I haven't figured out yet, but it can't be hard. I'm 
sure that there are two guitars playing that one. It is almost the same as the first one.)

VERSE 4:
Thought about a new destination
I'm never short of new inspiration
Roll out the map and knock it with a gin
made my plans to conquer the country
I'm waiting for you to get out of your situation
with your job and with your life

CHORUS:
all I need is somewhere I
can feel the grass beneath my feet.
A walk on sand, a fire I can warm my hands
my joy will be complete.

CHORUS 2:
Another summer's passing by
all I need is somewhere I
can feel the grass beneath my feet.
A walk on sand, a fire I can warm my hands
my joy will be complete.

END
Tap to rate this tab
 
# A B C D E F G H I J K L M N O P Q R S T U V W X Y Z