Song name
# A B C D E F G H I J K L M N O P Q R S T U V W X Y Z

Belle Histoire - Stay Awhile Acoustic tab

http://www.youtube.com/watch?v=pzjDZAgE_Ew&feature=relmfu

Artist : Belle Histoire
Song   : "Stay Awhile"

Tuning : EADGBe (StAnDaRd)
Capo   : Nope
Key    : E

Tabbed By : Chester Abellera (^-^)




Intro
e|--0----0----0----0--|
B|--0----0----0----0--|
G|--1----6----6----4--| x1
D|--2----7----6----4--| 
A|--2----7----4----2--|
E|--0----5----x----x--|


Verse 1
e|--0----0----0----0--|     |--0----0----0----0-------|
B|--0----0----0----0--|     |--0----0----0----0-------|
G|--1----6----6----4--|     |--1----6----6----4-------|
D|--2----7----6----4--|     |--2----7----6----4-------|
A|--2----7----4----2--|     |--2----7----4----2-------|
E|--0----5----x----x--|     |--0----5----x----x-------|


Chorus
e|--0----0----0----0--|
B|--0----0----0----0--|
G|--6----1----6----4--| x2
D|--7----2----6----4--| 
A|--7----2----4----2--|
E|--5----0----x----x--|


Back to Intro
e|--0----0----0----0--|
B|--0----0----0----0--|
G|--1----6----6----4--| x1
D|--2----7----6----4--| 
A|--2----7----4----2--|
E|--0----5----x----x--|


Verse 2
e|--0----0----0----0--|     |--0----0----0----0-------|
B|--0----0----0----0--|     |--0----0----0----0-------|
G|--1----6----6----4--|     |--1----6----6----4-------|
D|--2----7----6----4--|     |--2----7----6----4-------|
A|--2----7----4----2--|     |--2----7----4----2-------|
E|--0----5----x----x--|     |--0----5----x----x-------|



Chorus
e|--0----0----0----0--|
B|--0----0----0----0--|
G|--6----1----6----4--| x2
D|--7----2----6----4--| 
A|--7----2----4----2--|
E|--5----0----x----x--|


Bridge/Breakdown
e|--0----0----0----0--|          e|--0----0----0----0----0--|
B|--0----0----0----0--|    x3    B|--0----0----0----0----0--|
G|--6----8----6----8--|   then   G|--6----8----6----8----8--|
D|--7----9----7----9--|    ->    D|--7----9----7----9----9--|
A|--7----9----7----9--|          A|--7----9----7----9----9--|
E|--5----7----5----7--|          E|--5----7----5----7----7--|


Chorus
e|--0----0----0----0--|
B|--0----0----0----0--|
G|--6----1----6----4--| x4
D|--7----2----6----4--| 
A|--7----2----4----2--|
E|--5----0----x----x--|


Outro
e|--0----0----0----0--|
B|--0----0----0----0--|
G|--1----6----6----4--| x1
D|--2----7----6----4--| 
A|--2----7----4----2--|
E|--0----5----x----x--|


End on E =)








Lyrics :
Nice to meet you,
I waited for so long,
To find someone I could count on till the end.

Iíve searched for ages,
oh Iíve seen, so many faces,
but until yours I just had to play pretend.

(Chorus)
Donít you wanna stay,
You are such a ray of sunshine,
When I see you, never wanna look away.

And the visionís so much clearer,
When you started walking near me and I smile and I ask,
if youíd like to stay awhile.

You youíre perfect,
Oh the wait was worth it,
I couldnít ask for a better man.

I want to love you,
And take love from you,
I know weíll be together in the end.

(Chorus 2x)

Say you will, say you will,
Be mine, be mine.
Stay with me, stay with me,
Valentine, Valentine.
Say you will, say you will,
Be mine, be mine.
Stay with me, stay with me,
Valentine, Valentine.

(Chorus 2x)

Stay awhile.
Tap to rate this tab
 
# A B C D E F G H I J K L M N O P Q R S T U V W X Y Z