Song name
# A B C D E F G H I J K L M N O P Q R S T U V W X Y Z

Belle Humble - Ourselves tab

-------------------------------------------------------------------------------
			     OURSELVES - Belle Humble
-------------------------------------------------------------------------------
Tabbed by: TheShoxter

Tuning: Standard EADGBe

The guitar does this at the beginning and in the choruses.
e|--------------------------------------------------------------------------|
B|----------------4-4-4-4-3-3-3-3-------------------------------------------|
G|-4-4-4-4-3-5-5------------------------------------------------------------|
D|---------------5-5-5-5-5-5-5-5--------------------------------------------|
A|5-5-5-5-5-3-3-------------------------------------------------------------|
E|--------------------------------------------------------------------------|

Artist: https://soundcloud.com/bellehumble
        https://www.facebook.com/bellehumbleofficial
Tap to rate this tab
# A B C D E F G H I J K L M N O P Q R S T U V W X Y Z