Song name
# A B C D E F G H I J K L M N O P Q R S T U V W X Y Z

Bellini - Samba Rio De Janeiro tab

Tabber: Andylish29
Song: Samba Rio de Janeiro, Bellini

e|-------------------------|
b|-------------------------|
g|---5----7--5-7-9-5-2~----|
d|-7----7------------------|
a|-------------------------|
E|-------------------------|

e|-------5--3-5-7-3--------|
b|-----5------------5~-----|
g|---5---------------------|
d|-7-----------------------|
a|-------------------------|
E|-------------------------|

e|-------------------------|
b|-5-10-5-5-1-3-5-1--------|
g|-------------------2~----|
d|-------------------------|
a|-------------------------|
E|-------------------------|

e|----8------------7-------|
b|-10---10-10-8-10---8-10--|
g|-------------------------|
d|-------------------------|
a|-------------------------|
E|-------------------------|

Couldn't find any official website for Bellini, so I wrote down the link to Youtube. I'm 
you've heard that song somewhere, sometime...

http://www.youtube.com/watch?v=IWKhbR33bww
Tap to rate this tab
 
# A B C D E F G H I J K L M N O P Q R S T U V W X Y Z