Song name
# A B C D E F G H I J K L M N O P Q R S T U V W X Y Z

Bellini - Samba Rio De Janeiro tab

E|----------------------|
B|----------------------|
G|----------------------|
D|---------------2------|
A|-0-3--0-5--3-5---3-0--|
E|----------------------|


E|----------------------|
B|-------------0--------|
G|-------2-0-2---0------|
D|-----2-----------2----|
A|-0-3------------------|
E|----------------------|


E|----------------------|
B|----------------------|
G|---2------------------|
D|-2---2-------2--------|
A|-------5-3-5---3-0----|
E|----------------------|


E|----------------------|
B|---1------------------|
G|-2---2-2-0-2-4-0-2----|
D|----------------------|
A|----------------------|
E|----------------------|

This is my second tab (did by ear) ;)
Tap to rate this tab
 
# A B C D E F G H I J K L M N O P Q R S T U V W X Y Z