Guitaretab - guitar tabs
Song name
# A B C D E F G H I J K L M N O P Q R S T U V W X Y Z

Belly - Untitled And Unsung tab

-------------------------------------------------------------------------------
			     Untitled and Unsung - Belly
-------------------------------------------------------------------------------
Tabbed by: Travis Campbell
Email:traviscamp@earthlink.net

| /  slide up
| \  slide down
| h  hammer-on
| p  pull-off
| ~  vibrato
| +  harmonic
| x  Mute note

Chords:
     E       Am     Dsus    Dm     F    Am 12thfret
e|---0-------0-------3------1------1-------0----------------------|
B|---0-------1-------3------3------1-------13---------------------|
G|---1-------2-------2------2------2-------14---------------------|
D|---2-------2-------0------0------3-------14---------------------|
A|---2-------0---------------------3-------0----------------------|
E|---0-----------------------------1-------0----------------------|
--


Note-When playing the 12 fret Am in the chorus, the 13 on the b string will change from 
to 12 and back to 13 during the chord. All other notes in the chord will remain the same.

Intro Lead Guitar
[ Tab from: http://www.guitaretab.com/b/belly/187797.html ]
e|---------------------------------------------------------------------------|
B|---------------------------------------------------------------------------|
G|--9\7---7/9-----9\7----4----5----------------------------------------------|
D|---x----x--------x-----x----x----------------------------------------------|
A|--7\5---5/7-----7\5----2----3----------------------------------------------|
E|---------------------------------------------------------------------------|

Am         Dsus        Dm
I want you soft in the middle

Am      Dsus        Dm
I see a strange and furious face

Am               Dsus    Dm     E
I know your heart

Am          Dsus              Dm
I want your pearly hand in my hair

Am        Dsus        Dm
We make a strange and furious pair

Am         Dsus          Dm
I want you locked in the middle

Am               Dsus    Dm
I know your heart

Am               Dsus    Dm   E
I know your heart

E                          Am
It's just like mine was

   Am12fret                   Am
So you wanna know why I can't sleep

    Am12fret               Am
You wanna know why I can't sleep

    Am12fret               F
You wanna know why I can't sleep

F                                       E
Unless I've got a belly full of wine,

E                                       F
You show up in time for a bad time

F                                         E
Mmm, 'less I've got a belly full of wine,

E
You show up and the world is wild.


Repeat
Related for Untitled And Unsung tab