Song name
# A B C D E F G H I J K L M N O P Q R S T U V W X Y Z

Beloved - Death To Traitors tab

Help us improve GuitareTab! Take a short survey!
                                DEATH TO TRAITORS
                             As recorded by Beloved
                        (From the 2003 Album FAILURE ON)

Words and Music by Beloved
Arranged by Beloved
Transcribed by Jonathan Rose

Gtr I (D A D G B E) - 'Gtr. I Dist.'
Gtr II (D A D G B E) - 'Gtr. II Dist.'
Gtr III (D A D G B E) - 'Gtr. III'
Gtr IV (D A D G B E) - 'Gtr. IV'

 Intro
  Dancefight Q=182
  (Emadd9)
 4/4
  Gtr I
  PM----|     PM----------|     PM----------|     PM----------|     PM|
  E E E E E E E E   E E E E E E E E   E E E E E E E E   E E E E E E E E
|-----------------|-----------------|-----------------|-----------------||
|-7-7-8-7---8-7-8-|-7-7-8-7---8-7-8-|-7-7-8-7---8-7-8-|-7-7-8-7---8-7-8-||
|---------9-------|---------9-------|---------9-------|---------9-------||
|-----------------|-----------------|-----------------|-----------------||
|-----------------|-----------------|-----------------|-----------------||
|-----------------|-----------------|-----------------|-----------------||


   "A line drawn in the.."
    Em                                  Am                D
    Gtr I
    PM----|     PM----------|     PM----------|     PM----------|     PM|
    E E E E E E E E   E E E E E E E E   E E E E E E E E   E E E E E E E E
||------------------|-----------------|-----------------|-------------------||
||o-7-7-8-7---8-7-8-|-7-7-8-7---8-7-8-|-7-7-8-7---8-7-8-|-7-7-8-7---8-7-8--o||
||----------9-------|---------9-------|---------9-------|---------9---------||
||------------------|-----------------|-----------------|-------------------||
||o-----------------|-----------------|-----------------|------------------o||
||------------------|-----------------|-----------------|-------------------||
|
|   Gtr II
|   PM------------------------------------------------------------------|
|   E E E E E E E E   E E E E E E E E   E E E E E E E E   E E E E E E E E
||------------------|-----------------|-----------------|-------------------||
||o-----------------|-----------------|-----------------|------------------o||
||------------------|-----------------|-5-5-5-5-5-5-5-5-|-------------------||
||--5-5-5-5-5-5-5-5-|-5-5-5-5-5-5-5-5-|-7-7-7-7-7-7-7-7-|-4-4-4-4-4-4-4-4---||
||o-7-7-7-7-7-7-7-7-|-7-7-7-7-7-7-7-7-|-----------------|-5-5-5-5-5-5-5-5--o||
||------------------|-----------------|-----------------|-------------------||


    Em                                  Am                D
    PM----|     PM----------|     PM----------|     PM----------|     PM|
    E E E E E E E E   E E E E E E E E   E E E E E E E E   E E E E E E E E
||------------------|-----------------|-----------------|-------------------||
||o-7-7-8-7---8-7-8-|-7-7-8-7---8-7-8-|-7-7-8-7---8-7-8-|-7-7-8-7---8-7-8--o||
||----------9-------|---------9-------|---------9-------|---------9---------||
||------------------|-----------------|-----------------|-------------------||
||o-----------------|-----------------|-----------------|------------------o||
||------------------|-----------------|-----------------|-------------------||
|
|   Gtr II
|   E E E E E E E E   E E E E E E E E   E E E E E E E E   E E E E E E E E
||------------------|-----------------|-----------------|-------------------||
||o-----------------|-----------------|-----------------|------------------o||
||------------------|-----------------|-5-5-5-5-5-5-5-5-|-------------------||
||--5-5-5-5-5-5-5-5-|-5-5-5-5-5-5-5-5-|-7-7-7-7-7-7-7-7-|-4-4-4-4-4-4-4-4---||
||o-7-7-7-7-7-7-7-7-|-7-7-7-7-7-7-7-7-|-----------------|-5-5-5-5-5-5-5-5--o||
||------------------|-----------------|-----------------|-------------------||


   *Breakdown*
    D5   (Dm)         D5   (Dm)         D5   (Dm)         D5
    PM-|              PM-|              PM-|              PM-|   PM--|
    Q  E  q    Q.     Q  E  q    Q.     Q  E  q    Q.     Q  E E E E q    4x
||------------------|-----------------|-----------------|-----------------||
||o-----------------|-----------------|-----------------|----------------o||
||-------10--/10\---|------10--/10\---|------10--/10\---|-----------------||
||--------x----x----|-------x----x----|-------x----x----|-----------------||
||o-0--0--8---/8\---|-0--0--8---/8\---|-0--0--8---/8\---|-0--0-x-0-0-0---o||
||--0--0------------|-0--0------------|-0--0------------|-0--0-x-0-0-0----||
|
|   PM-|              PM-|              PM-|              PM-|   PM--|
|   Q  E  q    Q.     Q  E  q    Q.     Q  E  q    Q.     Q  E E E E q    4x
||------------------|-----------------|-----------------|-----------------||
||o-----------------|-----------------|-----------------|----------------o||
||--------7---/7\---|-------7---/7\---|-------7---/7\---|-----------------||
||--------x----x----|-------x----x----|-------x----x----|-----------------||
||o-0--0--5---/5\---|-0--0--5---/5\---|-0--0--5---/5\---|-0--0-x-0-0-0---o||
||--0--0------------|-0--0------------|-0--0------------|-0--0-x-0-0-0----||


   "A firm foundation of.."
    (Dsus4)                        (F6sus2)
    Gtr III
     Q.    Q.    Q     W            Q.    Q.    Q     W
||------------------|-12---------|-----------------|--------|
||o-------10--------|------------|-------11--------|-11-----|
||--------------10--|------------|-------------12--|--------|
||--12--------------|------------|-14--------------|--------|
||o-----------------|------------|-----------------|--------|
||------------------|------------|-----------------|--------|
|
|   Gtr IV
|    ~~~~~~~~~~~~~~~~~~~~~~~~~~~~~~~~~~~~~~~~~~~~~~~~~~~~
|    Q.    Q.    Q    +W            Q.    Q.    Q    +W
||------------------|------------|-----------------|--------|
||o-----------------|------------|-----------------|--------|
||------------------|------------|-----------------|--------|
||---------------5--|-(5)--------|--------------5--|-(5)----|
||o--------5--------|------------|--------5--------|--------|
||---0--------------|------------|--3--------------|--------|


  1.,2.,3.
  (G5)                           (Dm)              (Bb5)
   Q.    Q.    Q     W            Q.    Q.    Q     W             4x
|-----------------|------------|-----------------|----------------||
|-----------------|------------|-------10--------|-10------------o||
|-------10--------|-10---------|-----------------|----------------||
|-14----------14--|------------|-12----------12--|----------------||
|-----------------|------------|-----------------|---------------o||
|-----------------|------------|-----------------|----------------||
|
|  ~~~~~~~~~~~~~~~~~~~~~~~~~~~~~~~~~~~~~~~~~~~~~~~~~~~~~~~~~~~~~
|  Q.    Q.    Q    +W            Q.    Q.    Q     Q.   Q.   Q   4x
|-----------------|------------|-----------------|----------------||
|-----------------|------------|-----------------|---------------o||
|-----------------|------------|-----------------|----------------||
|--------------5--|-(5)--------|--------3-----2--|-------3----2---||
|--------5--------|------------|--5--------------|--1------------o||
|--5--------------|------------|-----------------|----------------||


  4.
   Q.    Q.    Q     W            Q.    Q.    Q     Q.    Q.    Q
|-----------------|------------|-----------------|-----------------||
|-----------------|------------|-------10--------|-10----------10--||
|-------10--------|-10---------|-----------------|-----------------||
|-14----------14--|------------|-12----------12--|-------12--------||
|-----------------|------------|-----------------|-----------------||
|-----------------|------------|-----------------|-----------------||
|
|  ~~~~~~~~~~~~~~~~~~~~~~~~~~~~~~~~~~~~~~~~~~~~~~~~~~~~~~~~~~~~~~~
|  Q.    Q.    Q    +W            Q.    Q.    Q     Q.    Q.    Q
|-----------------|------------|-----------------|-----------------||
|-----------------|------------|-----------------|-----------------||
|-----------------|------------|-----------------|-----------------||
|--------------5--|-(5)--------|--------3-----2--|--------3-----2--||
|--------5--------|------------|--5--------------|--1--------------||
|--5--------------|------------|-----------------|-----------------||


   "We fight fire with fire.."
    Punch & Kick Q=162
    F#5          G#5      F#5
    Gtrs I, II
    PM----|               PM---------------
    E. E. E. S E Q    +E  E E E S S E E E
||------------------|---------------------|
||o-----------------|---------------------|
||------------------|---------------------|
||------------------|---------------------|
||o-4--4--4----4-6--|-(6)-4-4---4-4-4-4-4-|
||--4--4--4----4-6--|-(6)-4-4---4-4-4-4-4-|


               G#5      F#5   F5
 -------|               PM----------|
  E. E. E. S E Q    +E  E E E E. E. E
|-----------------|--------------------|
|-----------------|--------------------|
|-----------------|--------------------|
|-----------------|--------------------|
|-4--4--4----4-6--|-(6)-4-4---3--3--3--|
|-4--4--4----4-6--|-(6)-4-4---3--3--3--|


  1.
  N.C.   F#G#5      F#5                            G#5      F#5   F5
                    PM----------------------|               PM------------|
  H    E E Q    +E  E E E S S E E E   E. E. E. S E Q    +E  E E E S S E E E
|-------------|---------------------|-----------------|----------------------||
|-------------|---------------------|-----------------|---------------------o||
|-------------|---------------------|-----------------|----------------------||
|-------------|---------------------|-----------------|----------------------||
|--------4-6--|-(6)-4-4---4-4-4-4-4-|-4--4--4----4-6--|-(6)-4-4---3-3-3-3-3-o||
|--------4-6--|-(6)-4-4---4-4-4-4-4-|-4--4--4----4-6--|-(6)-4-4---3-3-3-3-3--||


  2.
  N.C.   F#G#5      F#5                            G#5      F#5   F5
                    PM|   PM----------------|               PM----------|
  H    E E Q    +E  E E E S S E E E   E. E. E. S E Q    +E  E E E E E E E
|-------------|---------------------|-----------------|-------------------||
|-------------|---------------------|-----------------|-------------------||
|-------------|---------------------|-----------------|-------------------||
|-------------|---------------------|-----------------|-------------------||
|--------4-6--|-(6)-4-4---4-4-4-4-4-|-4--4--4----4-6--|-(6)-4-4---3-3-3-3-||
|--------4-6--|-(6)-4-4---4-4-4-4-4-|-4--4--4----4-6--|-(6)-4-4---3-3-3-3-||


 Bridge
  Original Tempo Q=182
  N.C.
 4/8
  Gtr I
  S S S S S S S S   S S S S S S S S
|-----------------|-----------------||
|-----------------|-----------------||
|-7-7-7-7-7-7-7-7-|-7-7-7-7-7-7-7-7-||
|-x-x-x-x-x-x-x-x-|-x-x-x-x-x-x-x-x-||
|-5-5-5-5-5-5-5-5-|-5-5-5-5-5-5-5-5-||
|-----------------|-----------------||


   "We drew a line in the.."
    (Dm)        (Dsus4(D5)    (C)     (C5)  (Am/C)
   8/8
    Gtr I
     E  E  E  E  E  E  E  E   E E E E  E  E  E  E
||--------------------------|---------------------|
||o-------------------------|---------------------|
||--10-10-10-10-12-12-14-14-|-9-9-9-9-12-12-14-14-|
||---x--x--x--x--x--x--x--x-|-x-x-x-x--x--x--x--x-|
||o--8--8--8--8-10-10-12-12-|-7-7-7-7-10-10-12-12-|
||--------------------------|---------------------|
|
|   Gtr II
|    E  E  E  E  E  E  E  E   E E E E  E  E  E  E
||--------------------------|---------------------|
||o-------------------------|---------------------|
||---7--7--7--7--7--7--7--7-|-5-5-5-5--5--5--5--5-|
||---x--x--x--x--x--x--x--x-|-x-x-x-x--x--x--x--x-|
||o--5--5--5--5--5--5--5--5-|-3-3-3-3--3--3--3--3-|
||--------------------------|---------------------|


  (F)   F5                              (Gm)  (Am)
   E  E  E  E  E  E  E  E    E  E  E  E  E  E  E  E   4x
|-------------------------|---------------------------||
|-------------------------|--------------------------o||
|-14-14-14-14-14-14-14-14-|-12-12-12-12-15-15-17-17---||
|--x--x--x--x--x--x--x--x-|--x--x--x--x--x--x--x--x---||
|-12-12-12-12-12-12-12-12-|-10-10-10-10-13-13-15-15--o||
|-------------------------|---------------------------||
|
|        PM--------------------------|
|  E  E  E  E  E  E  E  E    E  E  E  E  E  E  E  E   4x
|-------------------------|---------------------------||
|-------------------------|--------------------------o||
|-------------------------|-------------12-12-14-14---||
|--3--3-------------------|--------------x--x--x--x---||
|--x--x--3--3--3--3--3--3-|--3--3--3--3-10-10-12-12--o||
|--3--3--3--3--3--3--3--3-|--3--3--3--3---------------||


   "Go ahead.."
    D5                          C5
     E  E  E  E  E  E  E  E     E E E E  E  E  E  E
||----------------------------|-----------------------|
||o---------------------------|-----------------------|
||--10-10-10-10-12-12-14-14---|-9-9-9-9-12-12-14-14---|
||---x--x--x--x--x--x--x--x---|-x-x-x-x--x--x--x--x---|
||o--8--8--8--8-10-10-12-12---|-7-7-7-7-10-10-12-12---|
||----------------------------|-----------------------|
|
|    E  Q     E  Q     E +E     E Q   E  Q     E +E
||----------------------------|-----------------------|
||o---------------------------|-----------------------|
||---7--7-----7--7-----7-(7)\-|-5-5---5--5-----5-(5)\-|
||---7--7-----7--7-----7-(7)\-|-5-5---5--5-----5-(5)\-|
||o--5--5-----5--5-----5-(5)\-|-3-3---3--3-----3-(3)\-|
||----------------------------|-----------------------|


  F5                                      (Gm)  (Am)
   E  E  E  E  E  E  E  E      E  E  E  E  E  E  E  E   4x
|---------------------------|---------------------------||
|---------------------------|--------------------------o||
|-14-14-14-14-14-14-14-14---|-12-12-12-12-15-15-17-17---||
|--x--x--x--x--x--x--x--x---|--x--x--x--x--x--x--x--x---||
|-12-12-12-12-12-12-12-12---|-10-10-10-10-13-13-15-15--o||
|---------------------------|---------------------------||
|
|  E  Q     E  Q     E +E      E  Q     E  E  E  E  E   4x
|---------------------------|---------------------------||
|---------------------------|--------------------------o||
|---------------------------|-------------12-12-14-14---||
|--3--3-----3--3-----3-(3)\-|--3--3-----3--x--x--x--x---||
|--3--3-----3--3-----3-(3)\-|--3--3-----3-10-10-12-12--o||
|--3--3-----3--3-----3-(3)\-|--3--3-----3---------------||


 Interlude
  D5         N.C.       D5          N.C.
       PM--|                  PM--|
  Q.   S S E  E  E  E    Q.   S S E  E  E  E
|---------------------|----------------------|
|---------------------|----------------------|
|------------10-10-10-|-------------10-10-10-|
|-0-----------x--x--x-|--0-----------x--x--x-|
|-0----0-0-0--8--8--8-|--0----0-0-0--8--8--8-|
|-0----0-0-0----------|--0----0-0-0----------|
|
|                        >
| W                     +W
|---------------------|----------------------|
|---------------------|----------------------|
|---------------------|----------------------|
|-0-------------------|-(0)------------------|
|-0-------------------|-(0)------------------|
|-0-------------------|-(0)------------------|


  Bb5         N.C.       C5         G5    A5
        PM--|                       PM|   PM|
   Q.   S S E  E  E  E    E   +Q    S S E S S Q
|----------------------|--------------------------||
|----------------------|--------------------------||
|-------------10-10-10-|--------------------------||
|--8-----------x--x--x-|-10--(10)\------5-----7---||
|--8----8-8-8--8--8--8-|-10--(10)\--5-5-5-7-7-7---||
|--8----8-8-8----------|-10--(10)\--5-5-5-7-7-7---||
|
| +W                     +W
|----------------------|--------------------------||
|----------------------|--------------------------||
|----------------------|--------------------------||
|-(0)------------------|-(0)----------------------||
|-(0)------------------|-(0)----------------------||
|-(0)------------------|-(0)----------------------||


   "You will fight this battle.."
    D5         N.C.       D5         N.C.
    Gtrs I, II
         PM--|                 PM--|
    Q.   S S E  E  E  E   Q.   S S E  E  E  E
||----------------------|---------------------|
||o---------------------|---------------------|
||-------------10-10-10-|------------10-10-10-|
||--0-----------x--x--x-|-0-----------x--x--x-|
||o-0----0-0-0--8--8--8-|-0----0-0-0--8--8--8-|
||--0----0-0-0----------|-0----0-0-0----------|


  Bb5        N.C.       C5        G5    A5
       PM--|                      PM|   PM|
  Q.   S S E  E  E  E    E  +Q    S S E S S Q
|---------------------|-------------------------||
|---------------------|------------------------o||
|------------10-10-10-|-------------------------||
|-8-----------x--x--x-|-10-(10)\------5-----7---||
|-8----8-8-8--8--8--8-|-10-(10)\--5-5-5-7-7-7--o||
|-8----8-8-8----------|-10-(10)\--5-5-5-7-7-7---||


    D5         (Dm)       D5         (Dm)
    Gtr I
         PM--|                 PM--|
    Q.   S S E  E  E  E   Q.   S S E  E  E  E
||----------------------|---------------------|
||o---------------------|---------------------|
||-------------14-14-14-|------------14-14-14-|
||--0-----------x--x--x-|-0-----------x--x--x-|
||o-0----0-0-0-12-12-12-|-0----0-0-0-12-12-12-|
||--0----0-0-0----------|-0----0-0-0----------|
|
|   Gtr II
|        PM--|                 PM--|
|   Q.   S S E  E  E  E   Q.   S S E  E  E  E
||----------------------|---------------------|
||o---------------------|---------------------|
||-------------10-10-10-|------------10-10-10-|
||--0-----------x--x--x-|-0-----------x--x--x-|
||o-0----0-0-0--8--8--8-|-0----0-0-0--8--8--8-|
||--0----0-0-0----------|-0----0-0-0----------|


  Bb5        (Dm)       C5        G5    A5
       PM--|                      PM|   PM|
  Q.   S S E  E  E  E    E  +Q    S S E S S Q
|---------------------|-------------------------||
|---------------------|------------------------o||
|------------14-14-14-|-------------------------||
|-8-----------x--x--x-|-10-(10)\------5-----7---||
|-8----8-8-8-12-12-12-|-10-(10)\--5-5-5-7-7-7--o||
|-8----8-8-8----------|-10-(10)\--5-5-5-7-7-7---||
|
|      PM--|                      PM|   PM|
| Q.   S S E  E  E  E    E  +Q    S S E S S Q
|---------------------|-------------------------||
|---------------------|------------------------o||
|------------10-10-10-|-------------------------||
|-8-----------x--x--x-|-10-(10)\------5-----7---||
|-8----8-8-8--8--8--8-|-10-(10)\--5-5-5-7-7-7--o||
|-8----8-8-8----------|-10-(10)\--5-5-5-7-7-7---||


   *Breakdown*
    D5                                                              Dm7D7sus2
    Gtrs I, II
    PM--|      PM----------|           PM--|      PM----------|   PM
    S S E H    S S E   S S E H.        S S E H    S S E   S S E E E Q  Q
||-------------------|---------------|------------------|--------------------||
||o------------------|---------------|------------------|-----------6--5----o||
||-------------------|---------------|------------------|-----------5--5-----||
||-------------------|---------------|------------------|-----------7--7-----||
||o-0-0-0------0-0-0-|-0-0-0---------|-0-0-0------0-0-0-|-0-0-0---0-0--0----o||
||--0-0-0------0-0-0-|-0-0-0---------|-0-0-0------0-0-0-|-0-0-0---0-0--0-----||


   "This time it's now or.."
    (Dm)        (Dsus4(D5)    (C)     (C5)  (Am/C)
    Gtr I
     E  E  E  E  E  E  E  E   E E E E  E  E  E  E
||--------------------------|---------------------|
||o-------------------------|---------------------|
||--10-10-10-10-12-12-14-14-|-9-9-9-9-12-12-14-14-|
||---x--x--x--x--x--x--x--x-|-x-x-x-x--x--x--x--x-|
||o--8--8--8--8-10-10-12-12-|-7-7-7-7-10-10-12-12-|
||--------------------------|---------------------|
|
|   Gtr II
|    E  E  E  E  E  E  E  E   E E E E  E  E  E  E
||--------------------------|---------------------|
||o-------------------------|---------------------|
||---7--7--7--7--7--7--7--7-|-5-5-5-5--5--5--5--5-|
||---x--x--x--x--x--x--x--x-|-x-x-x-x--x--x--x--x-|
||o--5--5--5--5--5--5--5--5-|-3-3-3-3--3--3--3--3-|
||--------------------------|---------------------|


  (F)   F5                              (Gm)  (Am)
   E  E  E  E  E  E  E  E    E  E  E  E  E  E  E  E
|-------------------------|---------------------------||
|-------------------------|--------------------------o||
|-14-14-14-14-14-14-14-14-|-12-12-12-12-15-15-17-17---||
|--x--x--x--x--x--x--x--x-|--x--x--x--x--x--x--x--x---||
|-12-12-12-12-12-12-12-12-|-10-10-10-10-13-13-15-15--o||
|-------------------------|---------------------------||
|
|        PM--------------------------|
|  E  E  E  E  E  E  E  E    E  E  E  E  E  E  E  E
|-------------------------|---------------------------||
|-------------------------|--------------------------o||
|-------------------------|-------------12-12-14-14---||
|--3--3-------------------|--------------x--x--x--x---||
|--x--x--3--3--3--3--3--3-|--3--3--3--3-10-10-12-12--o||
|--3--3--3--3--3--3--3--3-|--3--3--3--3---------------||


   "We can't stop.."
    D5                          C5
     E  E  E  E  E  E  E  E     E E E E  E  E  E  E
||----------------------------|-----------------------|
||o---------------------------|-----------------------|
||--10-10-10-10-12-12-14-14---|-9-9-9-9-12-12-14-14---|
||---x--x--x--x--x--x--x--x---|-x-x-x-x--x--x--x--x---|
||o--8--8--8--8-10-10-12-12---|-7-7-7-7-10-10-12-12---|
||----------------------------|-----------------------|
|
|    E  Q     E  Q     E +E     E Q   E  Q     E +E
||----------------------------|-----------------------|
||o---------------------------|-----------------------|
||---7--7-----7--7-----7-(7)\-|-5-5---5--5-----5-(5)\-|
||---7--7-----7--7-----7-(7)\-|-5-5---5--5-----5-(5)\-|
||o--5--5-----5--5-----5-(5)\-|-3-3---3--3-----3-(3)\-|
||----------------------------|-----------------------|


  F5
   E  E  E  E  E  E  E  E    E  E  E  E  E  E  E  E
|-------------------------|---------------------------||
|-------------------------|--------------------------o||
|-14-14-14-14-14-14-14-14-|-12-12-12-12-15-15-17-17---||
|--x--x--x--x--x--x--x--x-|--x--x--x--x--x--x--x--x---||
|-12-12-12-12-12-12-12-12-|-10-10-10-10-13-13-15-15--o||
|-------------------------|---------------------------||
|
|  E  Q     E  E  Q     E    E  Q     E  E  E  E  E
|-------------------------|---------------------------||
|-------------------------|--------------------------o||
|-------------------------|---------------------------||
|--3--3-----3--3--3-----3-|--3--3-----3--3--3--3--3---||
|--3--3-----3--3--3-----3-|--3--3-----3--3--3--3--3--o||
|--3--3-----3--3--3-----3-|--3--3-----3--3--3--3--3---||


 "We were born for battle.."
  N.C.                        D5
  PM|   PM  PM--|     PM  PM|
  E E E E E S S E E   E E E E  E  E  E E
|-------------------|--------------------||
|-------------------|--------------------||
|-------------------|--------------------||
|---------7---------|---5----------------||
|-----8-----------7-|----------8--7----7-||
|-0-0---0---0-0-0---|-0---0-0-------10---||
|
| W                   H        H
|-------------------|--------------------||
|-------------------|--------------------||
|-------------------|--------------------||
|-------------------|--------------------||
|-------------------|---------12\--------||
|-------------------|---------12\--------||


 *Epic Breakdown*
                                 Dm7D7sus2
  PM|    PM  PM--|     PM    PM|
  E E E  E E S S E E   E   E E E Q  Q
|--------------------|------------------|
|--------------------|-----------6--5---|
|--------------------|-----------5--5---|
|----------7---------|-----5-----7--7---|
|-----8------------7-|-----------0--0---|
|-0-0----0---0-0-0---|-0-----0-0-0--0---|
|
| PM|        PM--|     PM--|
| E E Q.     S S E E   S S E Q   Q  Q
|--------------------|------------------|
|--------------------|-----------6--5---|
|--------------------|-----------5--5---|
|--------------------|-----------7--7---|
|-0-0--------0-0-0---|-0-0-0-----0--0---|
|-0-0--------0-0-0---|-0-0-0-----0--0---|


  D5
  PM|    PM  PM--|     PM    PM-|
  E E E  E E S S E E   E   E E  E E E  E E
|--------------------|---------------------|
|--------------------|---------------------|
|--------------------|---------------------|
|----------7---------|-----5---------------|
|-----8------------7-|------------8-7----7-|
|-0-0----0---0-0-0---|-0-----0--0-----10---|
|
| PM|        PM--|     PM--|
| E E Q.     S S E E   S S E H.
|--------------------|---------------------|
|--------------------|---------------------|
|--------------------|---------------------|
|--------------------|---------------------|
|-0-0--------0-0-0---|-0-0-0---------------|
|-0-0--------0-0-0---|-0-0-0---------------|


                                 Dm7 D7sus2
  PM|    PM  PM--|     PM    PM|
  E E E  E E S S E E   E   E E E E E E E
|--------------------|-------------------|
|--------------------|-----------6-6-5-5-|
|--------------------|-----------5-5-5-5-|
|----------7---------|-----5-----7-7-7-7-|
|-----8------------7-|-----------0-0-0-0-|
|-0-0----0---0-0-0---|-0-----0-0-0-0-0-0-|
|
| PM|        PM--|     PM--|
| E E Q.     S S E E   S S E Q   E E E E
|--------------------|-------------------|
|--------------------|-----------6-6-5-5-|
|--------------------|-----------5-5-5-5-|
|--------------------|-----------7-7-7-7-|
|-0-0--------0-0-0---|-0-0-0-----0-0-0-0-|
|-0-0--------0-0-0---|-0-0-0-----0-0-0-0-|


  D5
  PM|    PM  PM--|     PM    PM-|
  E E E  E E S S E E   E   E E  E E E  E E
|--------------------|---------------------|
|--------------------|---------------------|
|--------------------|---------------------|
|----------7---------|-----5---------------|
|-----8------------7-|------------8-7----7-|
|-0-0----0---0-0-0---|-0-----0--0-----10---|
|
| PM|        PM--|     PM--|
| E E Q.     S S E E   S S E H.
|--------------------|---------------------|
|--------------------|---------------------|
|--------------------|---------------------|
|--------------------|---------------------|
|-0-0--------0-0-0---|-0-0-0---------------|
|-0-0--------0-0-0---|-0-0-0---------------|


                                 Dm7D7sus2
  PM|    PM  PM--|     PM    PM|
  E E E  E E S S E E   E   E E E Q  Q
|--------------------|-----------------|
|--------------------|-----------6--5--|
|--------------------|-----------5--5--|
|----------7---------|-----5-----7--7--|
|-----8------------7-|-----------0--0--|
|-0-0----0---0-0-0---|-0-----0-0-0--0--|
|
| PM|        PM--|     PM--|
| E E Q.     S S E E   S S E Q   Q  Q
|--------------------|-----------------|
|--------------------|-----------6--5--|
|--------------------|-----------5--5--|
|--------------------|-----------7--7--|
|-0-0--------0-0-0---|-0-0-0-----0--0--|
|-0-0--------0-0-0---|-0-0-0-----0--0--|


  D5
  PM|    PM  PM--|     PM    PM-|
  E E E  E E S S E E   E   E E  E E E  E E
|--------------------|---------------------|
|--------------------|---------------------|
|--------------------|---------------------|
|----------7---------|-----5---------------|
|-----8------------7-|------------8-7----7-|
|-0-0----0---0-0-0---|-0-----0--0-----10---|
|
| PM|        PM--|     PM--|
| E E Q.     S S E E   S S E H.
|--------------------|---------------------|
|--------------------|---------------------|
|--------------------|---------------------|
|--------------------|---------------------|
|-0-0--------0-0-0---|-0-0-0---------------|
|-0-0--------0-0-0---|-0-0-0---------------|


                                 Dm7   D7sus2
  PM|    PM  PM--|     PM    PM|
  E E E  E E S S E E   E   E E E E E E E
|--------------------|-------------------|
|--------------------|-----------6-6-6-5-|
|--------------------|-----------5-5-5-5-|
|----------7---------|-----5-----7-7-7-7-|
|-----8------------7-|-----------0-0-0-0-|
|-0-0----0---0-0-0---|-0-----0-0-0-0-0-0-|
|
| PM|        PM--|     PM--|
| E E Q.     S S E E   S S E Q   E E E E
|--------------------|-------------------|
|--------------------|-----------6-6-6-5-|
|--------------------|-----------5-5-5-5-|
|--------------------|-----------7-7-7-7-|
|-0-0--------0-0-0---|-0-0-0-----0-0-0-0-|
|-0-0--------0-0-0---|-0-0-0-----0-0-0-0-|


  Dm7     D7suDm7     D7suDm7   D7sus2D5
  Gtrs I, II
                                      PM-------|
  E E E E E E E E   E E E E E E E E   Q.   S S E Q.
|-----------------|-----------------|-----------------||
|---6-6-6-5---6-6-|-6-5---6-6-6-5---|-----------------||
|---5-5-5-5---5-5-|-5-5---5-5-5-5---|-----------------||
|---7-7-7-7---7-7-|-7-7---7-7-7-7---|-----------------||
|---0-0-0-0---0-0-|-0-0---0-0-0-0---|-0----0-0-0------||
|---0-0-0-0---0-0-|-0-0---0-0-0-0---|-0----0-0-0------||


   "The places so close.."
    Bbsus2          D5
   3/4
    Gtr I
     Q   E  Q   E    Q   E  Q   E    Q   E  Q   E    Q    Q    Q
||----------------|---------------|---------------|----------------|
||o---------------|---------------|---------------|----------------|
||--10--10-10--10-|-12--12-12--12-|-14--14-14--14-|-14---10---12---|
||---x---x--x---x-|--x---x--x---x-|--x---x--x---x-|--x----x----x---|
||o--8---8--8---8-|-10--10-10--10-|-12--12-12--12-|-12----8---10---|
||----------------|---------------|---------------|----------------|
|
|   Gtr II
|    Q   E  Q   E    Q   E  Q   E    Q   E  Q   E    E E  E E  E E
||----------------|---------------|---------------|----------------|
||o---------------|---------------|---------------|----------------|
||--10--10-10--10-|---------------|---------------|----------------|
||--10--10-10--10-|--0---0--0---0-|--0---0--0---0-|--0-0--0-0--0-0-|
||o--8---8--8---8-|--0---0--0---0-|--0---0--0---0-|--0-0--0-0--0-0-|
||---8---8--8---8-|--0---0--0---0-|--0---0--0---0-|--0-0--0-0--0-0-|


  C5                              D5
   Q   E  Q   E    Q   E  Q   E    Q   E  Q   E    E  E  Q    Q    4x
|---------------|---------------|---------------|------------------||
|---------------|---------------|---------------|-----------------o||
|-14--14-14--14-|-15--15-15--15-|-17--17-17--17-|-14-15-10---12----||
|--x---x--x---x-|--x---x--x---x-|--x---x--x---x-|--x--x--x----x----||
|-12--12-12--12-|-13--13-13--13-|-15--15-15--15-|-12-13--8---10---o||
|---------------|---------------|---------------|------------------||
|
|  Q   E  Q   E    Q   E  Q   E    Q   E  Q   E    E  E  E E  E E  4x
|---------------|---------------|---------------|------------------||
|---------------|---------------|---------------|-----------------o||
|-12--12-12--12-|-12--12-12--12-|---------------|------------------||
|-10--10-10--10-|-10--10-10--10-|--0---0--0---0-|--0--0--0-0--0-0--||
|-10--10-10--10-|-10--10-10--10-|--0---0--0---0-|--0--0--0-0--0-0-o||
|-10--10-10--10-|-10--10-10--10-|--0---0--0---0-|--0--0--0-0--0-0--||


 Outro
  (Cadd11)
  Gtr I
   H.              +H.            +H.              +H       +Q
|---------------|--------------|----------------|-----------------|
|---------------|--------------|----------------|-----------------|
|-10------------|-(10)---------|-(10)-----------|-(10)-----(10)s==|
|--x------------|--(x)---------|--(x)-----------|--(x)------(x)---|
|--8------------|--(8)---------|--(8)-----------|--(8)------(8)s==|
|---------------|--------------|----------------|-----------------|
|
| Gtr III
|  Q    E Q   E     Q   Q   Q      Q    E Q   E     Q   Q    Q
|---------------|---0----------|----------------|---0-------------|
|---------8-----|-------8------|----------8-----|-------8---------|
|------10----10-|--------------|-------10----10-|-----------------|
|-10------------|----------10--|--10------------|-----------10----|
|---------------|--------------|----------------|-----------------|
|---------------|--------------|----------------|-----------------|


  (Cadd4)
   H.            +H.            +H.            +H.
|-------------|--------------|--------------|--------------*|
|-------------|--------------|--------------|--------------*|
|-17----------|-(17)---------|-(17)---------|-(17)---------*|
|--x----------|--(x)---------|--(x)---------|--(x)---------*|
|-15----------|-(15)---------|-(15)---------|-(15)---------*|
|-------------|--------------|--------------|--------------*|
|
|  Q   E Q  E     Q   Q   Q      Q   E Q  E     Q   Q   Q
|-------------|---0----------|--------------|---0----------*|
|--------6----|-------6------|---------6----|-------6------*|
|------9----9-|--------------|-------9----9-|--------------*|
|-10----------|----------10--|--10----------|----------10--*|
|-------------|--------------|--------------|--------------*|
|-------------|--------------|--------------|--------------*|
Related for Death To Traitors tab