Song name
# A B C D E F G H I J K L M N O P Q R S T U V W X Y Z

Beloved - Aimless Endevor tab

|-2h3p2------0-------------------|
|-------0--3---0-----------------|
|-----------------|  x8 Guitar 1-|
|--------------------------------|
|--------------------------------|
|--------------------------------|

Guitar 2 has harmonic feedback on the 7th fret during intro

|------------|
|------------|
|------------| guitar 2 at the end of intro right before next part
|------------|
|-9-9-9-9----|
|-7-7-7-7----|

|-14p10-14-14-10--14p10-14-14-12--14p10-14-14-10------------------------------|
|---------------------------------------------------12/5-5-5-5/8-8-8-8/12-----|
|-----------------------------------------------------------------------------|
|-----------------------------------------------------------------------------|
|-----------------------------------------------------------------------------|
|-----------------------------------------------------------------------------|

|----------------------------------|
|-12-12-12-12/10-10----------------|
|----------------------------------|
|--------------------| x2 Guitar 1-|
|----------------------------------|
|----------------------------------|

|------|
|------|
|-7-(7)-|
|-9-(9)-| x16 guitar 2-|
|----------------------|
|----------------------|


|----7-----7---------------------------10------10------[----------10------10--------|
|------7----------------------------------12------12---[-------------12------12-----|
|7h9-----7----9h11-9-9-9-9--11h14-11-------11------11-[-11h14-11-----11------11-----|
|-------------------------------------------------------[---------------------------|
|-------------------------------------------------------[---------------------------|
|-------------------------------------------------------[---------------------------|

|----------|  |-0--------------------------------|
|----------|  |-5--------------------------------|
|----------|  |-4----(2)(3)(4)(5)-| x9 guitar 1--|
|-1-1-1-1x-| |------(2)(3)(4)(5)-----------------|
|-1-1-1-1x-| |------(2)(3)(4)(5)-----------------| I didn't really know how to express 
harmonic slide, so
|-0-0-0-0x-| |------(2)(3)(4)(5)-----------------| starting at the top of 2nd fret, 
5 times while progressivley
                                                       sliding from top of 2nd fret to
of 5th fret on those strings

|-------------------------------------------------|
|-------------------------------------------------|
|-------------------------------------------------|
|-1---1---1x-1x-----1x--1x---1x-1x--| x4 guitar 2-|
|-1---1---1x-1x-----1x--1x---1x-1x----------------|
|-0---0---0x-0x-----0x--0x---0x-0x----------------|


|-----------------------------------|      |----------------------------------|
|-----------------------------------|      |-5-5-3-3-3-3-3-5-5-5-3-3-3-3-3-3--|
|-5-5-4-4-4-4-4-5-5-5-4-4-4-4-4-4-|       |-5-5-4-4-4-4-4-5-5-5-4-4-4-4-4-4---|x2 guitar1
|-----------------------------------| x2 |------------------------------------|
|-----------------------------------|      |----------------------------------|
|-----------------------------------|      |----------------------------------|

|------------------------------------------------|
|-5-5-3-3-3-3-3-5-5-5-3-3-3-3-3-3----------------|
|------------------------------------------------|
|----------------------------------| x4 guitar 2-|
|------------------------------------------------|
|------------------------------------------------|

|------------------------------------------------------------------------------|
|------------------------------------------------------------------------------|
|-7p5-----5-----7p5-----7/9--5--7p5-----5--------------5--4--5-----------------|
|-----9/7---5/7------9/7-------------9/7---5/7-------5-----------| x4 guitar 1-|
|------------------------------------------------5h7---------------------------|
|------------------------------------------------------------------------------|

|-----------|
|-----------|
|-----------|
|-7--10--3--| x8 guitar 2
|-7--10--3--|
|-5--8---1--|

|-----------------------------------------------------------]  [-----------------------|
|--------------------------7-7-7-7-5-5-5-5-5-5-5-5-5-5-5-5-] [-7-7-7-7-----------------|
|-7-7-7-7-7-7-7-7-7-7-7-7----------------------------------]  [---------] x4 guitar 1--|
|-----------------------------------------------------------]  [-----------------------|
|-----------------------------------------------------------]  [-----------------------| 
of this
|-----------------------------------------------------------]  [-----------------------| 
to below

|------------------|
|------------------|
|------------------|
|-7-(7)-| guitar 2-|
|-7-(7)-| one strum that resonates
|-5-(5)-|

|-0-------------------------------|
|-5-------------------------------|
|-4----(2)(3)(4)(5)-| x9 guitar 1-|
|------(2)(3)(4)(5)---------------|
|------(2)(3)(4)(5)---------------|
|------(2)(3)(4)(5)---------------|

|------------------------------------------------------------------------------|
|------------------------------------------------------------------------------|
|-7p5-----5-----7p5-----7/9--5--7p5-----5--------------5--4--5-----------------|
|-----9/7---5/7------9/7-------------9/7---5/7-------5-----------| x2 guitar 1-|
|------------------------------------------------5h7---------------------------|
|------------------------------------------------------------------------------|

|-----------|
|-----------|
|-----------|
|-7--10--3--| x4 guitar 2
|-7--10--3--|
|-5--8---1--|

|---7p5p0----7p5p0--------------------|
|-------------------------------------|
|----------5--------4/5-|x4 guitar 1--|
|-7-----------------------------------| instead of slide from 4/5 on the end on the 4th 
let the 4 fret ring
|-------------------------------------| out without sliding to the 5th fret.  Listen and 
see
|-------------------------------------|

|------------------|
|------------------|
|------------------|
|-7-(7)-| guitar 2-|
|-7-(7)-| one strum that last through the outro
|-5-(5)-|

thats it. enjoy.
too bad Beloved broke up, I really wish they're get back together
Tap to rate this tab
 
# A B C D E F G H I J K L M N O P Q R S T U V W X Y Z