Song name
# A B C D E F G H I J K L M N O P Q R S T U V W X Y Z

Beloved - Aimless Endeavor tab


e----2h3p2--------------2h3p2---------------|
b-----------0--3--5--0--------0--3--5--0----|
g-------------------------------------------|      not sure about how many
d-------------------------------------------|               times
a-------------------------------------------|
E-------------------------------------------|

then

e----2222-----32222-0~-----2222-------------------|
b--------3~--------------------3~--------3/0------|
g-------------------------------------------------|
d---------------------------------------------2/4-|
a-------------------------------------------------|
E-------------------------------------------------|
thats about it for the intro and first verse
Tap to rate this tab
 
# A B C D E F G H I J K L M N O P Q R S T U V W X Y Z