Song name
# A B C D E F G H I J K L M N O P Q R S T U V W X Y Z

Beloved - Kiss It Good-bye tab

this is all of the intro i know
drop d on ur guitar
should look like:
d:a:d:g:b:e:
{it goes a lil something like this}

E|--------------------0-------|
B|----------------6-----6---6-|
G|--------------7---7-----7---|
D|-8-8--8-8--0----------------|
A|-8-8--8-8--0----------------|
D|-8-8--8-8--0----------------|


E|--------------------0----------|
B|----------------6-----6---6----|
G|--------------7---7-----7------|
D|-8-8--8-8--0-------------------|
A|-8-8--8-8--0-------------------|
D|-8-8--8-8--0-------------------|

rember the past BELOVED 1999 - 2004

thats all i know of that song but listen to the song to figure out the rest
Tap to rate this tab
# A B C D E F G H I J K L M N O P Q R S T U V W X Y Z